0
SECTION
2
ENTITIES
0
TEXT
8
100
40
1.5240
1
J4
7
standard
50
0.000
10
74.9300
20
36.4490
0
SOLID
8
100
10
76.7080
20
32.5247
11
76.7080
21
33.5153
12
78.2320
22
32.5247
13
78.2320
23
33.5153
0
CIRCLE
8
100
62
7
10
77.4700
20
33.0200
40
0.0000
0
SOLID
8
100
10
74.5109
20
34.2011
11
74.5109
21
35.3949
12
76.7207
22
34.2011
13
76.7207
23
35.3949
0
CIRCLE
8
100
62
7
10
75.6158
20
34.7980
40
0.0000
0
SOLID
8
100
10
74.5109
20
30.6451
11
74.5109
21
31.8389
12
76.7207
22
30.6451
13
76.7207
23
31.8389
0
CIRCLE
8
100
62
7
10
75.6158
20
31.2420
40
0.0000
0
POLYLINE
8
100
66
1
40
0.1778
41
0.1778
0
VERTEX
8
100
10
74.3204
20
30.4292
0
VERTEX
8
100
10
74.3204
20
32.9692
0
SEQEND
0
POLYLINE
8
100
66
1
40
0.1778
41
0.1778
0
VERTEX
8
100
10
74.3204
20
30.4292
0
VERTEX
8
100
10
78.3844
20
30.4292
0
SEQEND
0
POLYLINE
8
100
66
1
40
0.1778
41
0.1778
0
VERTEX
8
100
10
78.3844
20
30.4292
0
VERTEX
8
100
10
78.3844
20
35.6362
0
SEQEND
0
POLYLINE
8
100
66
1
40
0.1778
41
0.1778
0
VERTEX
8
100
10
74.3204
20
35.6362
0
VERTEX
8
100
10
78.3844
20
35.6362
0
SEQEND
0
POLYLINE
8
100
66
1
40
0.1778
41
0.1778
0
VERTEX
8
100
10
74.3204
20
32.8422
0
VERTEX
8
100
10
74.3204
20
35.6362
0
SEQEND
0
TEXT
8
100
40
1.5240
1
J1
7
standard
50
0.000
10
9.0170
20
76.0730
71
2
0
SOLID
8
100
10
21.5900
20
61.2140
11
21.5900
21
61.9760
12
24.1300
22
61.2140
13
24.1300
23
61.9760
0
CIRCLE
8
100
62
7
10
22.8600
20
61.5950
40
0.0000
0
SOLID
8
100
10
21.5900
20
62.4840
11
21.5900
21
63.2460
12
24.1300
22
62.4840
13
24.1300
23
63.2460
0
CIRCLE
8
100
62
7
10
22.8600
20
62.8650
40
0.0000
0
SOLID
8
100
10
21.5900
20
63.7540
11
21.5900
21
64.5160
12
24.1300
22
63.7540
13
24.1300
23
64.5160
0
CIRCLE
8
100
62
7
10
22.8600
20
64.1350
40
0.0000
0
SOLID
8
100
10
21.5900
20
65.0240
11
21.5900
21
65.7860
12
24.1300
22
65.0240
13
24.1300
23
65.7860
0
CIRCLE
8
100
62
7
10
22.8600
20
65.4050
40
0.0000
0
SOLID
8
100
10
21.5900
20
66.2940
11
21.5900
21
67.0560
12
24.1300
22
66.2940
13
24.1300
23
67.0560
0
CIRCLE
8
100
62
7
10
22.8600
20
66.6750
40
0.0000
0
SOLID
8
100
10
21.5900
20
67.5640
11
21.5900
21
68.3260
12
24.1300
22
67.5640
13
24.1300
23
68.3260
0
CIRCLE
8
100
62
7
10
22.8600
20
67.9450
40
0.0000
0
SOLID
8
100
10
21.5900
20
68.8340
11
21.5900
21
69.5960
12
24.1300
22
68.8340
13
24.1300
23
69.5960
0
CIRCLE
8
100
62
7
10
22.8600
20
69.2150
40
0.0000
0
SOLID
8
100
10
21.5900
20
70.1040
11
21.5900
21
70.8660
12
24.1300
22
70.1040
13
24.1300
23
70.8660
0
CIRCLE
8
100
62
7
10
22.8600
20
70.4850
40
0.0000
0
CIRCLE
8
100
62
3
10
9.7790
20
73.7870
40
1.0160
0
POLYLINE
8
100
66
1
40
0.0508
41
0.0508
0
VERTEX
8
100
10
9.2710
20
73.7870
42
1.0
0
VERTEX
8
100
10
10.2870
20
73.7870
42
1.0
0
VERTEX
8
100
10
9.2710
20
73.7870
0
SEQEND
0
CIRCLE
8
100
62
3
10
9.7790
20
73.7870
40
0.8001
0
CIRCLE
8
100
62
3
10
9.7790
20
58.2422
40
1.0160
0
POLYLINE
8
100
66
1
40
0.0508
41
0.0508
0
VERTEX
8
100
10
9.2710
20
58.2422
42
1.0
0
VERTEX
8
100
10
10.2870
20
58.2422
42
1.0
0
VERTEX
8
100
10
9.2710
20
58.2422
0
SEQEND
0
CIRCLE
8
100
62
3
10
9.7790
20
58.2422
40
0.8001
0
POLYLINE
8
100
66
1
40
0.1778
41
0.1778
0
VERTEX
8
100
10
4.6482
20
73.7870
0
VERTEX
8
100
10
9.7790
20
73.7870
0
SEQEND
0
POLYLINE
8
100
66
1
40
0.1778
41
0.1778
0
VERTEX
8
100
10
4.6482
20
58.2422
0
VERTEX
8
100
10
4.6482
20
73.7870
0
SEQEND
0
POLYLINE
8
100
66
1
40
0.1778
41
0.1778
0
VERTEX
8
100
10
4.6482
20
73.7870
0
VERTEX
8
100
10
22.2250
20
73.7870
0
SEQEND
0
POLYLINE
8
100
66
1
40
0.1778
41
0.1778
0
VERTEX
8
100
10
22.2250
20
71.2724
0
VERTEX
8
100
10
22.2250
20
73.7870
0
SEQEND
0
POLYLINE
8
100
66
1
40
0.1778
41
0.1778
0
VERTEX
8
100
10
22.2250
20
58.2422
0
VERTEX
8
100
10
22.2250
20
60.9346
0
SEQEND
0
POLYLINE
8
100
66
1
40
0.1778
41
0.1778
0
VERTEX
8
100
10
4.6482
20
58.2422
0
VERTEX
8
100
10
22.2250
20
58.2422
0
SEQEND
0
TEXT
8
100
40
1.5240
1
L9
7
standard
50
0.000
10
35.8140
20
28.7020
0
SOLID
8
100
10
37.7190
20
24.6253
11
37.7190
21
25.4127
12
39.7510
22
24.6253
13
39.7510
23
25.4127
0
CIRCLE
8
100
62
7
10
38.7350
20
25.0190
40
0.0000
0
SOLID
8
100
10
37.9222
20
25.8826
11
37.9222
21
26.4922
12
39.7002
22
25.8826
13
39.7002
23
26.4922
0
CIRCLE
8
100
62
7
10
38.8112
20
26.1874
40
0.0000
0
SOLID
8
100
10
37.6936
20
26.8351
11
37.6936
21
27.6225
12
39.7256
22
26.8351
13
39.7256
23
27.6225
0
CIRCLE
8
100
62
7
10
38.7096
20
27.2288
40
0.0000
0
SOLID
8
100
10
35.0774
20
26.8351
11
35.0774
21
27.6225
12
37.1094
22
26.8351
13
37.1094
23
27.6225
0
CIRCLE
8
100
62
7
10
36.0934
20
27.2288
40
0.0000
0
SOLID
8
100
10
35.0520
20
25.8826
11
35.0520
21
26.4922
12
36.8300
22
25.8826
13
36.8300
23
26.4922
0
CIRCLE
8
100
62
7
10
35.9410
20
26.1874
40
0.0000
0
SOLID
8
100
10
35.0774
20
24.6253
11
35.0774
21
25.4127
12
37.1094
22
24.6253
13
37.1094
23
25.4127
0
CIRCLE
8
100
62
7
10
36.0934
20
25.0190
40
0.0000
0
POLYLINE
8
100
66
1
40
0.2540
41
0.2540
0
VERTEX
8
100
10
37.4650
20
25.6540
0
VERTEX
8
100
10
40.2590
20
25.6540
0
SEQEND
0
POLYLINE
8
100
66
1
40
0.2540
41
0.2540
0
VERTEX
8
100
10
37.4650
20
24.2570
0
VERTEX
8
100
10
37.4650
20
25.6540
0
SEQEND
0
POLYLINE
8
100
66
1
40
0.2540
41
0.2540
0
VERTEX
8
100
10
34.5440
20
24.2570
0
VERTEX
8
100
10
40.2590
20
24.2570
0
SEQEND
0
POLYLINE
8
100
66
1
40
0.2540
41
0.2540
0
VERTEX
8
100
10
34.5440
20
24.2570
0
VERTEX
8
100
10
34.5440
20
28.0670
0
SEQEND
0
POLYLINE
8
100
66
1
40
0.2540
41
0.2540
0
VERTEX
8
100
10
34.5440
20
28.0670
0
VERTEX
8
100
10
40.2590
20
28.0670
0
SEQEND
0
POLYLINE
8
100
66
1
40
0.2540
41
0.2540
0
VERTEX
8
100
10
40.2590
20
24.2570
0
VERTEX
8
100
10
40.2590
20
28.0670
0
SEQEND
0
TEXT
8
100
40
1.5240
1
U10
7
standard
50
0.000
10
103.6320
20
31.7500
0
ARC
8
100
10
105.1560
20
30.4800
39
0.2540
40
0.0508
50
0.000
51
90.000
0
ARC
8
100
10
105.1560
20
30.4800
39
0.2540
40
0.0508
50
90.000
51
180.000
0
ARC
8
100
10
105.1560
20
30.4800
39
0.2540
40
0.0508
50
180.000
51
270.000
0
ARC
8
100
10
105.1560
20
30.4800
39
0.2540
40
0.0508
50
270.000
51
0.000
0
SOLID
8
100
10
105.9561
20
30.2768
11
105.9561
21
30.6832
12
106.9467
22
30.2768
13
106.9467
23
30.6832
0
CIRCLE
8
100
62
7
10
106.4514
20
30.4800
40
0.0000
0
SOLID
8
100
10
105.9561
20
29.6418
11
105.9561
21
30.0482
12
106.9467
22
29.6418
13
106.9467
23
30.0482
0
CIRCLE
8
100
62
7
10
106.4514
20
29.8450
40
0.0000
0
SOLID
8
100
10
105.9561
20
28.9560
11
105.9561
21
29.3624
12
106.9467
22
28.9560
13
106.9467
23
29.3624
0
CIRCLE
8
100
62
7
10
106.4514
20
29.1592
40
0.0000
0
SOLID
8
100
10
103.7717
20
30.2768
11
103.7717
21
30.6832
12
104.7623
22
30.2768
13
104.7623
23
30.6832
0
CIRCLE
8
100
62
7
10
104.2670
20
30.4800
40
0.0000
0
SOLID
8
100
10
103.7717
20
28.9560
11
103.7717
21
29.3624
12
104.7623
22
28.9560
13
104.7623
23
29.3624
0
CIRCLE
8
100
62
7
10
104.2670
20
29.1592
40
0.0000
0
SOLID
8
100
10
103.7717
20
29.6418
11
103.7717
21
30.0482
12
104.7623
22
29.6418
13
104.7623
23
30.0482
0
CIRCLE
8
100
62
7
10
104.2670
20
29.8450
40
0.0000
0
POLYLINE
8
100
66
1
40
0.1778
41
0.1778
0
VERTEX
8
100
10
104.8512
20
30.8356
0
VERTEX
8
100
10
105.8672
20
30.8356
0
SEQEND
0
POLYLINE
8
100
66
1
40
0.1778
41
0.1778
0
VERTEX
8
100
10
105.8672
20
28.8290
0
VERTEX
8
100
10
105.8672
20
30.8356
0
SEQEND
0
POLYLINE
8
100
66
1
40
0.1778
41
0.1778
0
VERTEX
8
100
10
104.8512
20
28.8290
0
VERTEX
8
100
10
105.8672
20
28.8290
0
SEQEND
0
POLYLINE
8
100
66
1
40
0.1778
41
0.1778
0
VERTEX
8
100
10
104.8512
20
28.8290
0
VERTEX
8
100
10
104.8512
20
30.8356
0
SEQEND
0
TEXT
8
100
40
1.5240
1
C18
7
standard
50
0.000
10
100.9650
20
43.1800
0
SOLID
8
100
10
101.0920
20
41.3639
11
101.0920
21
42.4561
12
102.1080
22
41.3639
13
102.1080
23
42.4561
0
CIRCLE
8
100
62
7
10
101.6000
20
41.9100
40
0.0000
0
SOLID
8
100
10
103.4288
20
41.3639
11
103.4288
21
42.4561
12
104.4448
22
41.3639
13
104.4448
23
42.4561
0
CIRCLE
8
100
62
7
10
103.9368
20
41.9100
40
0.0000
0
POLYLINE
8
100
66
1
40
0.1778
41
0.1778
0
VERTEX
8
100
10
100.9650
20
42.6212
0
VERTEX
8
100
10
104.5718
20
42.6212
0
SEQEND
0
POLYLINE
8
100
66
1
40
0.1778
41
0.1778
0
VERTEX
8
100
10
104.5718
20
41.1988
0
VERTEX
8
100
10
104.5718
20
42.6212
0
SEQEND
0
POLYLINE
8
100
66
1
40
0.1778
41
0.1778
0
VERTEX
8
100
10
100.9650
20
41.1988
0
VERTEX
8
100
10
104.5718
20
41.1988
0
SEQEND
0
POLYLINE
8
100
66
1
40
0.1778
41
0.1778
0
VERTEX
8
100
10
100.9650
20
41.1988
0
VERTEX
8
100
10
100.9650
20
42.6212
0
SEQEND
0
TEXT
8
100
40
1.5240
1
C19
7
standard
50
0.000
10
100.9650
20
38.7350
0
SOLID
8
100
10
101.0920
20
36.9189
11
101.0920
21
38.0111
12
102.1080
22
36.9189
13
102.1080
23
38.0111
0
CIRCLE
8
100
62
7
10
101.6000
20
37.4650
40
0.0000
0
SOLID
8
100
10
103.4288
20
36.9189
11
103.4288
21
38.0111
12
104.4448
22
36.9189
13
104.4448
23
38.0111
0
CIRCLE
8
100
62
7
10
103.9368
20
37.4650
40
0.0000
0
POLYLINE
8
100
66
1
40
0.1778
41
0.1778
0
VERTEX
8
100
10
100.9650
20
36.7538
0
VERTEX
8
100
10
100.9650
20
38.1762
0
SEQEND
0
POLYLINE
8
100
66
1
40
0.1778
41
0.1778
0
VERTEX
8
100
10
100.9650
20
36.7538
0
VERTEX
8
100
10
104.5718
20
36.7538
0
SEQEND
0
POLYLINE
8
100
66
1
40
0.1778
41
0.1778
0
VERTEX
8
100
10
104.5718
20
36.7538
0
VERTEX
8
100
10
104.5718
20
38.1762
0
SEQEND
0
POLYLINE
8
100
66
1
40
0.1778
41
0.1778
0
VERTEX
8
100
10
100.9650
20
38.1762
0
VERTEX
8
100
10
104.5718
20
38.1762
0
SEQEND
0
TEXT
8
100
40
1.5240
1
C20
7
standard
50
0.000
10
107.6960
20
31.1150
0
SOLID
8
100
10
107.8230
20
29.2989
11
107.8230
21
30.3911
12
108.8390
22
29.2989
13
108.8390
23
30.3911
0
CIRCLE
8
100
62
7
10
108.3310
20
29.8450
40
0.0000
0
SOLID
8
100
10
110.1598
20
29.2989
11
110.1598
21
30.3911
12
111.1758
22
29.2989
13
111.1758
23
30.3911
0
CIRCLE
8
100
62
7
10
110.6678
20
29.8450
40
0.0000
0
POLYLINE
8
100
66
1
40
0.1778
41
0.1778
0
VERTEX
8
100
10
107.6960
20
30.5562
0
VERTEX
8
100
10
111.3028
20
30.5562
0
SEQEND
0
POLYLINE
8
100
66
1
40
0.1778
41
0.1778
0
VERTEX
8
100
10
111.3028
20
29.1338
0
VERTEX
8
100
10
111.3028
20
30.5562
0
SEQEND
0
POLYLINE
8
100
66
1
40
0.1778
41
0.1778
0
VERTEX
8
100
10
107.6960
20
29.1338
0
VERTEX
8
100
10
111.3028
20
29.1338
0
SEQEND
0
POLYLINE
8
100
66
1
40
0.1778
41
0.1778
0
VERTEX
8
100
10
107.6960
20
29.1338
0
VERTEX
8
100
10
107.6960
20
30.5562
0
SEQEND
0
TEXT
8
100
40
1.5240
1
C17
7
standard
50
0.000
10
97.7900
20
27.9400
0
SOLID
8
100
10
97.9170
20
26.1239
11
97.9170
21
27.2161
12
98.9330
22
26.1239
13
98.9330
23
27.2161
0
CIRCLE
8
100
62
7
10
98.4250
20
26.6700
40
0.0000
0
SOLID
8
100
10
100.2538
20
26.1239
11
100.2538
21
27.2161
12
101.2698
22
26.1239
13
101.2698
23
27.2161
0
CIRCLE
8
100
62
7
10
100.7618
20
26.6700
40
0.0000
0
POLYLINE
8
100
66
1
40
0.1778
41
0.1778
0
VERTEX
8
100
10
97.7900
20
27.3812
0
VERTEX
8
100
10
101.3968
20
27.3812
0
SEQEND
0
POLYLINE
8
100
66
1
40
0.1778
41
0.1778
0
VERTEX
8
100
10
101.3968
20
25.9588
0
VERTEX
8
100
10
101.3968
20
27.3812
0
SEQEND
0
POLYLINE
8
100
66
1
40
0.1778
41
0.1778
0
VERTEX
8
100
10
97.7900
20
25.9588
0
VERTEX
8
100
10
101.3968
20
25.9588
0
SEQEND
0
POLYLINE
8
100
66
1
40
0.1778
41
0.1778
0
VERTEX
8
100
10
97.7900
20
25.9588
0
VERTEX
8
100
10
97.7900
20
27.3812
0
SEQEND
0
TEXT
8
100
40
1.5240
1
C9
7
standard
50
90.000
10
27.0510
20
32.6390
0
SOLID
8
100
10
28.0289
20
34.5948
11
28.0289
21
35.6108
12
29.1211
22
34.5948
13
29.1211
23
35.6108
0
CIRCLE
8
100
62
7
10
28.5750
20
35.1028
40
0.0000
0
SOLID
8
100
10
28.0289
20
32.2580
11
28.0289
21
33.2740
12
29.1211
22
32.2580
13
29.1211
23
33.2740
0
CIRCLE
8
100
62
7
10
28.5750
20
32.7660
40
0.0000
0
POLYLINE
8
100
66
1
40
0.1778
41
0.1778
0
VERTEX
8
100
10
27.8638
20
32.1310
0
VERTEX
8
100
10
27.8638
20
35.7378
0
SEQEND
0
POLYLINE
8
100
66
1
40
0.1778
41
0.1778
0
VERTEX
8
100
10
27.8638
20
35.7378
0
VERTEX
8
100
10
29.2862
20
35.7378
0
SEQEND
0
POLYLINE
8
100
66
1
40
0.1778
41
0.1778
0
VERTEX
8
100
10
29.2862
20
32.1310
0
VERTEX
8
100
10
29.2862
20
35.7378
0
SEQEND
0
POLYLINE
8
100
66
1
40
0.1778
41
0.1778
0
VERTEX
8
100
10
27.8638
20
32.1310
0
VERTEX
8
100
10
29.2862
20
32.1310
0
SEQEND
0
TEXT
8
100
40
1.5240
1
C8
7
standard
50
0.000
10
26.5430
20
40.3860
0
SOLID
8
100
10
29.1338
20
38.6969
11
29.1338
21
39.7891
12
30.1498
22
38.6969
13
30.1498
23
39.7891
0
CIRCLE
8
100
62
7
10
29.6418
20
39.2430
40
0.0000
0
SOLID
8
100
10
26.7970
20
38.6969
11
26.7970
21
39.7891
12
27.8130
22
38.6969
13
27.8130
23
39.7891
0
CIRCLE
8
100
62
7
10
27.3050
20
39.2430
40
0.0000
0
POLYLINE
8
100
66
1
40
0.1778
41
0.1778
0
VERTEX
8
100
10
26.6700
20
39.9542
0
VERTEX
8
100
10
30.2768
20
39.9542
0
SEQEND
0
POLYLINE
8
100
66
1
40
0.1778
41
0.1778
0
VERTEX
8
100
10
30.2768
20
38.5318
0
VERTEX
8
100
10
30.2768
20
39.9542
0
SEQEND
0
POLYLINE
8
100
66
1
40
0.1778
41
0.1778
0
VERTEX
8
100
10
26.6700
20
38.5318
0
VERTEX
8
100
10
30.2768
20
38.5318
0
SEQEND
0
POLYLINE
8
100
66
1
40
0.1778
41
0.1778
0
VERTEX
8
100
10
26.6700
20
38.5318
0
VERTEX
8
100
10
26.6700
20
39.9542
0
SEQEND
0
TEXT
8
100
40
1.5240
1
C10
7
standard
50
0.000
10
51.4350
20
47.1170
0
SOLID
8
100
10
49.4538
20
47.0789
11
49.4538
21
48.1711
12
50.4698
22
47.0789
13
50.4698
23
48.1711
0
CIRCLE
8
100
62
7
10
49.9618
20
47.6250
40
0.0000
0
SOLID
8
100
10
47.1170
20
47.0789
11
47.1170
21
48.1711
12
48.1330
22
47.0789
13
48.1330
23
48.1711
0
CIRCLE
8
100
62
7
10
47.6250
20
47.6250
40
0.0000
0
POLYLINE
8
100
66
1
40
0.1778
41
0.1778
0
VERTEX
8
100
10
46.9900
20
46.9138
0
VERTEX
8
100
10
46.9900
20
48.3362
0
SEQEND
0
POLYLINE
8
100
66
1
40
0.1778
41
0.1778
0
VERTEX
8
100
10
46.9900
20
46.9138
0
VERTEX
8
100
10
50.5968
20
46.9138
0
SEQEND
0
POLYLINE
8
100
66
1
40
0.1778
41
0.1778
0
VERTEX
8
100
10
50.5968
20
46.9138
0
VERTEX
8
100
10
50.5968
20
48.3362
0
SEQEND
0
POLYLINE
8
100
66
1
40
0.1778
41
0.1778
0
VERTEX
8
100
10
46.9900
20
48.3362
0
VERTEX
8
100
10
50.5968
20
48.3362
0
SEQEND
0
TEXT
8
100
40
1.5240
1
C11
7
standard
50
0.000
10
49.7840
20
35.6870
0
SOLID
8
100
10
51.9938
20
38.1889
11
51.9938
21
39.2811
12
53.0098
22
38.1889
13
53.0098
23
39.2811
0
CIRCLE
8
100
62
7
10
52.5018
20
38.7350
40
0.0000
0
SOLID
8
100
10
49.6570
20
38.1889
11
49.6570
21
39.2811
12
50.6730
22
38.1889
13
50.6730
23
39.2811
0
CIRCLE
8
100
62
7
10
50.1650
20
38.7350
40
0.0000
0
POLYLINE
8
100
66
1
40
0.1778
41
0.1778
0
VERTEX
8
100
10
49.5300
20
38.0238
0
VERTEX
8
100
10
49.5300
20
39.4462
0
SEQEND
0
POLYLINE
8
100
66
1
40
0.1778
41
0.1778
0
VERTEX
8
100
10
49.5300
20
38.0238
0
VERTEX
8
100
10
53.1368
20
38.0238
0
SEQEND
0
POLYLINE
8
100
66
1
40
0.1778
41
0.1778
0
VERTEX
8
100
10
53.1368
20
38.0238
0
VERTEX
8
100
10
53.1368
20
39.4462
0
SEQEND
0
POLYLINE
8
100
66
1
40
0.1778
41
0.1778
0
VERTEX
8
100
10
49.5300
20
39.4462
0
VERTEX
8
100
10
53.1368
20
39.4462
0
SEQEND
0
TEXT
8
100
40
1.5240
1
L10
7
standard
50
0.000
10
49.0220
20
43.8150
0
SOLID
8
100
10
47.0789
20
45.0088
11
47.0789
21
46.0248
12
48.1711
22
45.0088
13
48.1711
23
46.0248
0
CIRCLE
8
100
62
7
10
47.6250
20
45.5168
40
0.0000
0
SOLID
8
100
10
47.0789
20
42.6720
11
47.0789
21
43.6880
12
48.1711
22
42.6720
13
48.1711
23
43.6880
0
CIRCLE
8
100
62
7
10
47.6250
20
43.1800
40
0.0000
0
POLYLINE
8
100
66
1
40
0.1778
41
0.1778
0
VERTEX
8
100
10
46.9138
20
42.5450
0
VERTEX
8
100
10
46.9138
20
46.1518
0
SEQEND
0
POLYLINE
8
100
66
1
40
0.1778
41
0.1778
0
VERTEX
8
100
10
46.9138
20
46.1518
0
VERTEX
8
100
10
48.3362
20
46.1518
0
SEQEND
0
POLYLINE
8
100
66
1
40
0.1778
41
0.1778
0
VERTEX
8
100
10
48.3362
20
42.5450
0
VERTEX
8
100
10
48.3362
20
46.1518
0
SEQEND
0
POLYLINE
8
100
66
1
40
0.1778
41
0.1778
0
VERTEX
8
100
10
46.9138
20
42.5450
0
VERTEX
8
100
10
48.3362
20
42.5450
0
SEQEND
0
TEXT
8
100
40
1.5240
1
U5
7
standard
50
0.000
10
57.7850
20
83.8200
0
SOLID
8
100
10
52.3113
20
67.9958
11
52.3113
21
69.5198
12
52.5399
22
67.9958
13
52.5399
23
69.5198
0
CIRCLE
8
100
62
7
10
52.4256
20
68.7578
40
0.0000
0
SOLID
8
100
10
50.3301
20
67.9958
11
50.3301
21
69.5198
12
50.5587
22
67.9958
13
50.5587
23
69.5198
0
CIRCLE
8
100
62
7
10
50.4444
20
68.7578
40
0.0000
0
SOLID
8
100
10
50.8127
20
67.9958
11
50.8127
21
69.5198
12
51.0413
22
67.9958
13
51.0413
23
69.5198
0
CIRCLE
8
100
62
7
10
50.9270
20
68.7578
40
0.0000
0
SOLID
8
100
10
51.8287
20
67.9958
11
51.8287
21
69.5198
12
52.0573
22
67.9958
13
52.0573
23
69.5198
0
CIRCLE
8
100
62
7
10
51.9430
20
68.7578
40
0.0000
0
SOLID
8
100
10
51.3461
20
67.9958
11
51.3461
21
69.5198
12
51.5747
22
67.9958
13
51.5747
23
69.5198
0
CIRCLE
8
100
62
7
10
51.4604
20
68.7578
40
0.0000
0
SOLID
8
100
10
48.3489
20
67.9958
11
48.3489
21
69.5198
12
48.5775
22
67.9958
13
48.5775
23
69.5198
0
CIRCLE
8
100
62
7
10
48.4632
20
68.7578
40
0.0000
0
SOLID
8
100
10
48.8315
20
67.9958
11
48.8315
21
69.5198
12
49.0601
22
67.9958
13
49.0601
23
69.5198
0
CIRCLE
8
100
62
7
10
48.9458
20
68.7578
40
0.0000
0
SOLID
8
100
10
49.8475
20
67.9958
11
49.8475
21
69.5198
12
50.0761
22
67.9958
13
50.0761
23
69.5198
0
CIRCLE
8
100
62
7
10
49.9618
20
68.7578
40
0.0000
0
SOLID
8
100
10
49.3141
20
67.9958
11
49.3141
21
69.5198
12
49.5427
22
67.9958
13
49.5427
23
69.5198
0
CIRCLE
8
100
62
7
10
49.4284
20
68.7578
40
0.0000
0
SOLID
8
100
10
45.3263
20
67.9958
11
45.3263
21
69.5198
12
45.5549
22
67.9958
13
45.5549
23
69.5198
0
CIRCLE
8
100
62
7
10
45.4406
20
68.7578
40
0.0000
0
SOLID
8
100
10
45.8343
20
67.9958
11
45.8343
21
69.5198
12
46.0629
22
67.9958
13
46.0629
23
69.5198
0
CIRCLE
8
100
62
7
10
45.9486
20
68.7578
40
0.0000
0
SOLID
8
100
10
44.8183
20
67.9958
11
44.8183
21
69.5198
12
45.0469
22
67.9958
13
45.0469
23
69.5198
0
CIRCLE
8
100
62
7
10
44.9326
20
68.7578
40
0.0000
0
SOLID
8
100
10
44.3103
20
67.9958
11
44.3103
21
69.5198
12
44.5389
22
67.9958
13
44.5389
23
69.5198
0
CIRCLE
8
100
62
7
10
44.4246
20
68.7578
40
0.0000
0
SOLID
8
100
10
46.3169
20
67.9958
11
46.3169
21
69.5198
12
46.5455
22
67.9958
13
46.5455
23
69.5198
0
CIRCLE
8
100
62
7
10
46.4312
20
68.7578
40
0.0000
0
SOLID
8
100
10
46.8249
20
67.9958
11
46.8249
21
69.5198
12
47.0535
22
67.9958
13
47.0535
23
69.5198
0
CIRCLE
8
100
62
7
10
46.9392
20
68.7578
40
0.0000
0
SOLID
8
100
10
47.8155
20
67.9958
11
47.8155
21
69.5198
12
48.0441
22
67.9958
13
48.0441
23
69.5198
0
CIRCLE
8
100
62
7
10
47.9298
20
68.7578
40
0.0000
0
SOLID
8
100
10
47.3329
20
67.9958
11
47.3329
21
69.5198
12
47.5615
22
67.9958
13
47.5615
23
69.5198
0
CIRCLE
8
100
62
7
10
47.4472
20
68.7578
40
0.0000
0
SOLID
8
100
10
43.3451
20
67.9958
11
43.3451
21
69.5198
12
43.5737
22
67.9958
13
43.5737
23
69.5198
0
CIRCLE
8
100
62
7
10
43.4594
20
68.7578
40
0.0000
0
SOLID
8
100
10
43.8277
20
67.9958
11
43.8277
21
69.5198
12
44.0563
22
67.9958
13
44.0563
23
69.5198
0
CIRCLE
8
100
62
7
10
43.9420
20
68.7578
40
0.0000
0
SOLID
8
100
10
42.8117
20
67.9958
11
42.8117
21
69.5198
12
43.0403
22
67.9958
13
43.0403
23
69.5198
0
CIRCLE
8
100
62
7
10
42.9260
20
68.7578
40
0.0000
0
SOLID
8
100
10
42.3037
20
67.9958
11
42.3037
21
69.5198
12
42.5323
22
67.9958
13
42.5323
23
69.5198
0
CIRCLE
8
100
62
7
10
42.4180
20
68.7578
40
0.0000
0
SOLID
8
100
10
54.3179
20
67.9958
11
54.3179
21
69.5198
12
54.5465
22
67.9958
13
54.5465
23
69.5198
0
CIRCLE
8
100
62
7
10
54.4322
20
68.7578
40
0.0000
0
SOLID
8
100
10
52.8193
20
67.9958
11
52.8193
21
69.5198
12
53.0479
22
67.9958
13
53.0479
23
69.5198
0
CIRCLE
8
100
62
7
10
52.9336
20
68.7578
40
0.0000
0
SOLID
8
100
10
53.8353
20
67.9958
11
53.8353
21
69.5198
12
54.0639
22
67.9958
13
54.0639
23
69.5198
0
CIRCLE
8
100
62
7
10
53.9496
20
68.7578
40
0.0000
0
SOLID
8
100
10
53.3273
20
67.9958
11
53.3273
21
69.5198
12
53.5559
22
67.9958
13
53.5559
23
69.5198
0
CIRCLE
8
100
62
7
10
53.4416
20
68.7578
40
0.0000
0
SOLID
8
100
10
55.4482
20
72.4281
11
55.4482
21
72.6567
12
56.9722
22
72.4281
13
56.9722
23
72.6567
0
CIRCLE
8
100
62
7
10
56.2102
20
72.5424
40
0.0000
0
SOLID
8
100
10
55.4482
20
74.3839
11
55.4482
21
74.6125
12
56.9722
22
74.3839
13
56.9722
23
74.6125
0
CIRCLE
8
100
62
7
10
56.2102
20
74.4982
40
0.0000
0
SOLID
8
100
10
55.4482
20
73.9013
11
55.4482
21
74.1299
12
56.9722
22
73.9013
13
56.9722
23
74.1299
0
CIRCLE
8
100
62
7
10
56.2102
20
74.0156
40
0.0000
0
SOLID
8
100
10
55.4482
20
72.9107
11
55.4482
21
73.1393
12
56.9722
22
72.9107
13
56.9722
23
73.1393
0
CIRCLE
8
100
62
7
10
56.2102
20
73.0250
40
0.0000
0
SOLID
8
100
10
55.4482
20
73.4187
11
55.4482
21
73.6473
12
56.9722
22
73.4187
13
56.9722
23
73.6473
0
CIRCLE
8
100
62
7
10
56.2102
20
73.5330
40
0.0000
0
SOLID
8
100
10
55.4482
20
76.4159
11
55.4482
21
76.6445
12
56.9722
22
76.4159
13
56.9722
23
76.6445
0
CIRCLE
8
100
62
7
10
56.2102
20
76.5302
40
0.0000
0
SOLID
8
100
10
55.4482
20
75.9079
11
55.4482
21
76.1365
12
56.9722
22
75.9079
13
56.9722
23
76.1365
0
CIRCLE
8
100
62
7
10
56.2102
20
76.0222
40
0.0000
0
SOLID
8
100
10
55.4482
20
74.9173
11
55.4482
21
75.1459
12
56.9722
22
74.9173
13
56.9722
23
75.1459
0
CIRCLE
8
100
62
7
10
56.2102
20
75.0316
40
0.0000
0
SOLID
8
100
10
55.4482
20
75.4253
11
55.4482
21
75.6539
12
56.9722
22
75.4253
13
56.9722
23
75.6539
0
CIRCLE
8
100
62
7
10
56.2102
20
75.5396
40
0.0000
0
SOLID
8
100
10
55.4482
20
79.3877
11
55.4482
21
79.6163
12
56.9722
22
79.3877
13
56.9722
23
79.6163
0
CIRCLE
8
100
62
7
10
56.2102
20
79.5020
40
0.0000
0
SOLID
8
100
10
55.4482
20
78.9051
11
55.4482
21
79.1337
12
56.9722
22
78.9051
13
56.9722
23
79.1337
0
CIRCLE
8
100
62
7
10
56.2102
20
79.0194
40
0.0000
0
SOLID
8
100
10
55.4482
20
79.9211
11
55.4482
21
80.1497
12
56.9722
22
79.9211
13
56.9722
23
80.1497
0
CIRCLE
8
100
62
7
10
56.2102
20
80.0354
40
0.0000
0
SOLID
8
100
10
55.4482
20
80.4291
11
55.4482
21
80.6577
12
56.9722
22
80.4291
13
56.9722
23
80.6577
0
CIRCLE
8
100
62
7
10
56.2102
20
80.5434
40
0.0000
0
SOLID
8
100
10
55.4482
20
78.4225
11
55.4482
21
78.6511
12
56.9722
22
78.4225
13
56.9722
23
78.6511
0
CIRCLE
8
100
62
7
10
56.2102
20
78.5368
40
0.0000
0
SOLID
8
100
10
55.4482
20
77.9145
11
55.4482
21
78.1431
12
56.9722
22
77.9145
13
56.9722
23
78.1431
0
CIRCLE
8
100
62
7
10
56.2102
20
78.0288
40
0.0000
0
SOLID
8
100
10
55.4482
20
76.9239
11
55.4482
21
77.1525
12
56.9722
22
76.9239
13
56.9722
23
77.1525
0
CIRCLE
8
100
62
7
10
56.2102
20
77.0382
40
0.0000
0
SOLID
8
100
10
55.4482
20
77.4065
11
55.4482
21
77.6351
12
56.9722
22
77.4065
13
56.9722
23
77.6351
0
CIRCLE
8
100
62
7
10
56.2102
20
77.5208
40
0.0000
0
SOLID
8
100
10
55.4482
20
81.4197
11
55.4482
21
81.6483
12
56.9722
22
81.4197
13
56.9722
23
81.6483
0
CIRCLE
8
100
62
7
10
56.2102
20
81.5340
40
0.0000
0
SOLID
8
100
10
55.4482
20
80.9371
11
55.4482
21
81.1657
12
56.9722
22
80.9371
13
56.9722
23
81.1657
0
CIRCLE
8
100
62
7
10
56.2102
20
81.0514
40
0.0000
0
SOLID
8
100
10
55.4482
20
81.9277
11
55.4482
21
82.1563
12
56.9722
22
81.9277
13
56.9722
23
82.1563
0
CIRCLE
8
100
62
7
10
56.2102
20
82.0420
40
0.0000
0
SOLID
8
100
10
55.4482
20
82.4357
11
55.4482
21
82.6643
12
56.9722
22
82.4357
13
56.9722
23
82.6643
0
CIRCLE
8
100
62
7
10
56.2102
20
82.5500
40
0.0000
0
SOLID
8
100
10
55.4482
20
70.4215
11
55.4482
21
70.6501
12
56.9722
22
70.4215
13
56.9722
23
70.6501
0
CIRCLE
8
100
62
7
10
56.2102
20
70.5358
40
0.0000
0
SOLID
8
100
10
55.4482
20
71.9201
11
55.4482
21
72.1487
12
56.9722
22
71.9201
13
56.9722
23
72.1487
0
CIRCLE
8
100
62
7
10
56.2102
20
72.0344
40
0.0000
0
SOLID
8
100
10
55.4482
20
70.9041
11
55.4482
21
71.1327
12
56.9722
22
70.9041
13
56.9722
23
71.1327
0
CIRCLE
8
100
62
7
10
56.2102
20
71.0184
40
0.0000
0
SOLID
8
100
10
55.4482
20
71.3867
11
55.4482
21
71.6153
12
56.9722
22
71.3867
13
56.9722
23
71.6153
0
CIRCLE
8
100
62
7
10
56.2102
20
71.5010
40
0.0000
0
SOLID
8
100
10
52.2859
20
83.5660
11
52.2859
21
85.0900
12
52.5145
22
83.5660
13
52.5145
23
85.0900
0
CIRCLE
8
100
62
7
10
52.4002
20
84.3280
40
0.0000
0
SOLID
8
100
10
50.3047
20
83.5660
11
50.3047
21
85.0900
12
50.5333
22
83.5660
13
50.5333
23
85.0900
0
CIRCLE
8
100
62
7
10
50.4190
20
84.3280
40
0.0000
0
SOLID
8
100
10
50.7873
20
83.5660
11
50.7873
21
85.0900
12
51.0159
22
83.5660
13
51.0159
23
85.0900
0
CIRCLE
8
100
62
7
10
50.9016
20
84.3280
40
0.0000
0
SOLID
8
100
10
51.8033
20
83.5660
11
51.8033
21
85.0900
12
52.0319
22
83.5660
13
52.0319
23
85.0900
0
CIRCLE
8
100
62
7
10
51.9176
20
84.3280
40
0.0000
0
SOLID
8
100
10
51.2953
20
83.5660
11
51.2953
21
85.0900
12
51.5239
22
83.5660
13
51.5239
23
85.0900
0
CIRCLE
8
100
62
7
10
51.4096
20
84.3280
40
0.0000
0
SOLID
8
100
10
48.2981
20
83.5660
11
48.2981
21
85.0900
12
48.5267
22
83.5660
13
48.5267
23
85.0900
0
CIRCLE
8
100
62
7
10
48.4124
20
84.3280
40
0.0000
0
SOLID
8
100
10
48.8061
20
83.5660
11
48.8061
21
85.0900
12
49.0347
22
83.5660
13
49.0347
23
85.0900
0
CIRCLE
8
100
62
7
10
48.9204
20
84.3280
40
0.0000
0
SOLID
8
100
10
49.7967
20
83.5660
11
49.7967
21
85.0900
12
50.0253
22
83.5660
13
50.0253
23
85.0900
0
CIRCLE
8
100
62
7
10
49.9110
20
84.3280
40
0.0000
0
SOLID
8
100
10
49.2887
20
83.5660
11
49.2887
21
85.0900
12
49.5173
22
83.5660
13
49.5173
23
85.0900
0
CIRCLE
8
100
62
7
10
49.4030
20
84.3280
40
0.0000
0
SOLID
8
100
10
45.3009
20
83.5660
11
45.3009
21
85.0900
12
45.5295
22
83.5660
13
45.5295
23
85.0900
0
CIRCLE
8
100
62
7
10
45.4152
20
84.3280
40
0.0000
0
SOLID
8
100
10
45.8089
20
83.5660
11
45.8089
21
85.0900
12
46.0375
22
83.5660
13
46.0375
23
85.0900
0
CIRCLE
8
100
62
7
10
45.9232
20
84.3280
40
0.0000
0
SOLID
8
100
10
44.7675
20
83.5660
11
44.7675
21
85.0900
12
44.9961
22
83.5660
13
44.9961
23
85.0900
0
CIRCLE
8
100
62
7
10
44.8818
20
84.3280
40
0.0000
0
SOLID
8
100
10
44.2849
20
83.5660
11
44.2849
21
85.0900
12
44.5135
22
83.5660
13
44.5135
23
85.0900
0
CIRCLE
8
100
62
7
10
44.3992
20
84.3280
40
0.0000
0
SOLID
8
100
10
46.3169
20
83.5660
11
46.3169
21
85.0900
12
46.5455
22
83.5660
13
46.5455
23
85.0900
0
CIRCLE
8
100
62
7
10
46.4312
20
84.3280
40
0.0000
0
SOLID
8
100
10
46.7995
20
83.5660
11
46.7995
21
85.0900
12
47.0281
22
83.5660
13
47.0281
23
85.0900
0
CIRCLE
8
100
62
7
10
46.9138
20
84.3280
40
0.0000
0
SOLID
8
100
10
47.8155
20
83.5660
11
47.8155
21
85.0900
12
48.0441
22
83.5660
13
48.0441
23
85.0900
0
CIRCLE
8
100
62
7
10
47.9298
20
84.3280
40
0.0000
0
SOLID
8
100
10
47.3075
20
83.5660
11
47.3075
21
85.0900
12
47.5361
22
83.5660
13
47.5361
23
85.0900
0
CIRCLE
8
100
62
7
10
47.4218
20
84.3280
40
0.0000
0
SOLID
8
100
10
43.2943
20
83.5660
11
43.2943
21
85.0900
12
43.5229
22
83.5660
13
43.5229
23
85.0900
0
CIRCLE
8
100
62
7
10
43.4086
20
84.3280
40
0.0000
0
SOLID
8
100
10
43.8023
20
83.5660
11
43.8023
21
85.0900
12
44.0309
22
83.5660
13
44.0309
23
85.0900
0
CIRCLE
8
100
62
7
10
43.9166
20
84.3280
40
0.0000
0
SOLID
8
100
10
42.7863
20
83.5660
11
42.7863
21
85.0900
12
43.0149
22
83.5660
13
43.0149
23
85.0900
0
CIRCLE
8
100
62
7
10
42.9006
20
84.3280
40
0.0000
0
SOLID
8
100
10
42.2783
20
83.5660
11
42.2783
21
85.0900
12
42.5069
22
83.5660
13
42.5069
23
85.0900
0
CIRCLE
8
100
62
7
10
42.3926
20
84.3280
40
0.0000
0
SOLID
8
100
10
54.3179
20
83.5660
11
54.3179
21
85.0900
12
54.5465
22
83.5660
13
54.5465
23
85.0900
0
CIRCLE
8
100
62
7
10
54.4322
20
84.3280
40
0.0000
0
SOLID
8
100
10
52.7685
20
83.5660
11
52.7685
21
85.0900
12
52.9971
22
83.5660
13
52.9971
23
85.0900
0
CIRCLE
8
100
62
7
10
52.8828
20
84.3280
40
0.0000
0
SOLID
8
100
10
53.8099
20
83.5660
11
53.8099
21
85.0900
12
54.0385
22
83.5660
13
54.0385
23
85.0900
0
CIRCLE
8
100
62
7
10
53.9242
20
84.3280
40
0.0000
0
SOLID
8
100
10
53.3019
20
83.5660
11
53.3019
21
85.0900
12
53.5305
22
83.5660
13
53.5305
23
85.0900
0
CIRCLE
8
100
62
7
10
53.4162
20
84.3280
40
0.0000
0
SOLID
8
100
10
39.8780
20
71.4121
11
39.8780
21
71.6407
12
41.4020
22
71.4121
13
41.4020
23
71.6407
0
CIRCLE
8
100
62
7
10
40.6400
20
71.5264
40
0.0000
0
SOLID
8
100
10
39.8780
20
70.9041
11
39.8780
21
71.1327
12
41.4020
22
70.9041
13
41.4020
23
71.1327
0
CIRCLE
8
100
62
7
10
40.6400
20
71.0184
40
0.0000
0
SOLID
8
100
10
39.8780
20
71.9201
11
39.8780
21
72.1487
12
41.4020
22
71.9201
13
41.4020
23
72.1487
0
CIRCLE
8
100
62
7
10
40.6400
20
72.0344
40
0.0000
0
SOLID
8
100
10
39.8780
20
70.4215
11
39.8780
21
70.6501
12
41.4020
22
70.4215
13
41.4020
23
70.6501
0
CIRCLE
8
100
62
7
10
40.6400
20
70.5358
40
0.0000
0
SOLID
8
100
10
39.8780
20
82.4357
11
39.8780
21
82.6643
12
41.4020
22
82.4357
13
41.4020
23
82.6643
0
CIRCLE
8
100
62
7
10
40.6400
20
82.5500
40
0.0000
0
SOLID
8
100
10
39.8780
20
81.9277
11
39.8780
21
82.1563
12
41.4020
22
81.9277
13
41.4020
23
82.1563
0
CIRCLE
8
100
62
7
10
40.6400
20
82.0420
40
0.0000
0
SOLID
8
100
10
39.8780
20
80.8863
11
39.8780
21
81.1149
12
41.4020
22
80.8863
13
41.4020
23
81.1149
0
CIRCLE
8
100
62
7
10
40.6400
20
81.0006
40
0.0000
0
SOLID
8
100
10
39.8780
20
81.4197
11
39.8780
21
81.6483
12
41.4020
22
81.4197
13
41.4020
23
81.6483
0
CIRCLE
8
100
62
7
10
40.6400
20
81.5340
40
0.0000
0
SOLID
8
100
10
39.8780
20
77.4065
11
39.8780
21
77.6351
12
41.4020
22
77.4065
13
41.4020
23
77.6351
0
CIRCLE
8
100
62
7
10
40.6400
20
77.5208
40
0.0000
0
SOLID
8
100
10
39.8780
20
76.9239
11
39.8780
21
77.1525
12
41.4020
22
76.9239
13
41.4020
23
77.1525
0
CIRCLE
8
100
62
7
10
40.6400
20
77.0382
40
0.0000
0
SOLID
8
100
10
39.8780
20
77.9145
11
39.8780
21
78.1431
12
41.4020
22
77.9145
13
41.4020
23
78.1431
0
CIRCLE
8
100
62
7
10
40.6400
20
78.0288
40
0.0000
0
SOLID
8
100
10
39.8780
20
78.4225
11
39.8780
21
78.6511
12
41.4020
22
78.4225
13
41.4020
23
78.6511
0
CIRCLE
8
100
62
7
10
40.6400
20
78.5368
40
0.0000
0
SOLID
8
100
10
39.8780
20
80.4291
11
39.8780
21
80.6577
12
41.4020
22
80.4291
13
41.4020
23
80.6577
0
CIRCLE
8
100
62
7
10
40.6400
20
80.5434
40
0.0000
0
SOLID
8
100
10
39.8780
20
79.9211
11
39.8780
21
80.1497
12
41.4020
22
79.9211
13
41.4020
23
80.1497
0
CIRCLE
8
100
62
7
10
40.6400
20
80.0354
40
0.0000
0
SOLID
8
100
10
39.8780
20
78.9051
11
39.8780
21
79.1337
12
41.4020
22
78.9051
13
41.4020
23
79.1337
0
CIRCLE
8
100
62
7
10
40.6400
20
79.0194
40
0.0000
0
SOLID
8
100
10
39.8780
20
79.3877
11
39.8780
21
79.6163
12
41.4020
22
79.3877
13
41.4020
23
79.6163
0
CIRCLE
8
100
62
7
10
40.6400
20
79.5020
40
0.0000
0
SOLID
8
100
10
39.8780
20
75.4253
11
39.8780
21
75.6539
12
41.4020
22
75.4253
13
41.4020
23
75.6539
0
CIRCLE
8
100
62
7
10
40.6400
20
75.5396
40
0.0000
0
SOLID
8
100
10
39.8780
20
74.9173
11
39.8780
21
75.1459
12
41.4020
22
74.9173
13
41.4020
23
75.1459
0
CIRCLE
8
100
62
7
10
40.6400
20
75.0316
40
0.0000
0
SOLID
8
100
10
39.8780
20
75.9079
11
39.8780
21
76.1365
12
41.4020
22
75.9079
13
41.4020
23
76.1365
0
CIRCLE
8
100
62
7
10
40.6400
20
76.0222
40
0.0000
0
SOLID
8
100
10
39.8780
20
76.4159
11
39.8780
21
76.6445
12
41.4020
22
76.4159
13
41.4020
23
76.6445
0
CIRCLE
8
100
62
7
10
40.6400
20
76.5302
40
0.0000
0
SOLID
8
100
10
39.8780
20
73.4187
11
39.8780
21
73.6473
12
41.4020
22
73.4187
13
41.4020
23
73.6473
0
CIRCLE
8
100
62
7
10
40.6400
20
73.5330
40
0.0000
0
SOLID
8
100
10
39.8780
20
72.9107
11
39.8780
21
73.1393
12
41.4020
22
72.9107
13
41.4020
23
73.1393
0
CIRCLE
8
100
62
7
10
40.6400
20
73.0250
40
0.0000
0
SOLID
8
100
10
39.8780
20
73.9013
11
39.8780
21
74.1299
12
41.4020
22
73.9013
13
41.4020
23
74.1299
0
CIRCLE
8
100
62
7
10
40.6400
20
74.0156
40
0.0000
0
SOLID
8
100
10
39.8780
20
74.3839
11
39.8780
21
74.6125
12
41.4020
22
74.3839
13
41.4020
23
74.6125
0
CIRCLE
8
100
62
7
10
40.6400
20
74.4982
40
0.0000
0
SOLID
8
100
10
39.8780
20
72.4281
11
39.8780
21
72.6567
12
41.4020
22
72.4281
13
41.4020
23
72.6567
0
CIRCLE
8
100
62
7
10
40.6400
20
72.5424
40
0.0000
0
POLYLINE
8
100
66
1
40
0.1778
41
0.1778
0
VERTEX
8
100
10
41.5798
20
69.6976
0
VERTEX
8
100
10
41.5798
20
83.4390
0
SEQEND
0
POLYLINE
8
100
66
1
40
0.1778
41
0.1778
0
VERTEX
8
100
10
55.2704
20
69.6976
0
VERTEX
8
100
10
55.2704
20
83.4390
0
SEQEND
0
POLYLINE
8
100
66
1
40
0.1778
41
0.1778
0
VERTEX
8
100
10
41.5798
20
69.6976
0
VERTEX
8
100
10
55.2704
20
69.6976
0
SEQEND
0
POLYLINE
8
100
66
1
40
0.1778
41
0.1778
0
VERTEX
8
100
10
41.5798
20
83.4390
0
VERTEX
8
100
10
55.2704
20
83.4390
0
SEQEND
0
TEXT
8
100
40
1.5240
1
L1
7
standard
50
0.000
10
55.8800
20
102.2350
71
2
0
ARC
8
100
10
59.9440
20
103.8860
39
1.0160
40
0.5080
50
0.000
51
90.000
0
ARC
8
100
10
59.9440
20
103.8860
39
1.0160
40
0.5080
50
90.000
51
180.000
0
ARC
8
100
10
59.9440
20
103.8860
39
1.0160
40
0.5080
50
180.000
51
270.000
0
ARC
8
100
10
59.9440
20
103.8860
39
1.0160
40
0.5080
50
270.000
51
0.000
0
SOLID
8
100
10
54.6100
20
121.2850
11
54.6100
21
122.5550
12
57.1500
22
121.2850
13
57.1500
23
122.5550
0
CIRCLE
8
100
62
7
10
55.8800
20
121.9200
40
0.0000
0
SOLID
8
100
10
92.7100
20
121.2850
11
92.7100
21
122.5550
12
95.2500
22
121.2850
13
95.2500
23
122.5550
0
CIRCLE
8
100
62
7
10
93.9800
20
121.9200
40
0.0000
0
SOLID
8
100
10
92.7100
20
116.2050
11
92.7100
21
117.4750
12
95.2500
22
116.2050
13
95.2500
23
117.4750
0
CIRCLE
8
100
62
7
10
93.9800
20
116.8400
40
0.0000
0
SOLID
8
100
10
54.6100
20
116.2050
11
54.6100
21
117.4750
12
57.1500
22
116.2050
13
57.1500
23
117.4750
0
CIRCLE
8
100
62
7
10
55.8800
20
116.8400
40
0.0000
0
SOLID
8
100
10
92.7100
20
111.1250
11
92.7100
21
112.3950
12
95.2500
22
111.1250
13
95.2500
23
112.3950
0
CIRCLE
8
100
62
7
10
93.9800
20
111.7600
40
0.0000
0
SOLID
8
100
10
92.7100
20
106.0450
11
92.7100
21
107.3150
12
95.2500
22
106.0450
13
95.2500
23
107.3150
0
CIRCLE
8
100
62
7
10
93.9800
20
106.6800
40
0.0000
0
SOLID
8
100
10
54.6100
20
106.0450
11
54.6100
21
107.3150
12
57.1500
22
106.0450
13
57.1500
23
107.3150
0
CIRCLE
8
100
62
7
10
55.8800
20
106.6800
40
0.0000
0
POLYLINE
8
100
66
1
40
0.3810
41
0.3810
0
VERTEX
8
100
10
57.5310
20
101.6000
0
VERTEX
8
100
10
57.5310
20
124.4600
0
SEQEND
0
POLYLINE
8
100
66
1
40
0.3810
41
0.3810
0
VERTEX
8
100
10
57.5310
20
124.4600
0
VERTEX
8
100
10
92.3290
20
124.4600
0
SEQEND
0
POLYLINE
8
100
66
1
40
0.3810
41
0.3810
0
VERTEX
8
100
10
92.3290
20
101.6000
0
VERTEX
8
100
10
92.3290
20
124.4600
0
SEQEND
0
POLYLINE
8
100
66
1
40
0.3810
41
0.3810
0
VERTEX
8
100
10
57.5310
20
101.6000
0
VERTEX
8
100
10
92.3290
20
101.6000
0
SEQEND
0
TEXT
8
100
40
1.5240
1
R5
7
standard
50
0.000
10
34.2900
20
96.9010
0
SOLID
8
100
10
36.7538
20
94.7039
11
36.7538
21
95.7961
12
37.7698
22
94.7039
13
37.7698
23
95.7961
0
CIRCLE
8
100
62
7
10
37.2618
20
95.2500
40
0.0000
0
SOLID
8
100
10
34.4170
20
94.7039
11
34.4170
21
95.7961
12
35.4330
22
94.7039
13
35.4330
23
95.7961
0
CIRCLE
8
100
62
7
10
34.9250
20
95.2500
40
0.0000
0
POLYLINE
8
100
66
1
40
0.1778
41
0.1778
0
VERTEX
8
100
10
34.2900
20
95.9612
0
VERTEX
8
100
10
37.8968
20
95.9612
0
SEQEND
0
POLYLINE
8
100
66
1
40
0.1778
41
0.1778
0
VERTEX
8
100
10
37.8968
20
94.5388
0
VERTEX
8
100
10
37.8968
20
95.9612
0
SEQEND
0
POLYLINE
8
100
66
1
40
0.1778
41
0.1778
0
VERTEX
8
100
10
34.2900
20
94.5388
0
VERTEX
8
100
10
37.8968
20
94.5388
0
SEQEND
0
POLYLINE
8
100
66
1
40
0.1778
41
0.1778
0
VERTEX
8
100
10
34.2900
20
94.5388
0
VERTEX
8
100
10
34.2900
20
95.9612
0
SEQEND
0
TEXT
8
100
40
1.5240
1
C36
7
standard
50
0.000
10
107.9500
20
93.3450
0
SOLID
8
100
10
115.6970
20
93.4339
11
115.6970
21
94.5261
12
116.7130
22
93.4339
13
116.7130
23
94.5261
0
CIRCLE
8
100
62
7
10
116.2050
20
93.9800
40
0.0000
0
SOLID
8
100
10
113.3602
20
93.4339
11
113.3602
21
94.5261
12
114.3762
22
93.4339
13
114.3762
23
94.5261
0
CIRCLE
8
100
62
7
10
113.8682
20
93.9800
40
0.0000
0
POLYLINE
8
100
66
1
40
0.1778
41
0.1778
0
VERTEX
8
100
10
116.8400
20
93.2688
0
VERTEX
8
100
10
116.8400
20
94.6912
0
SEQEND
0
POLYLINE
8
100
66
1
40
0.1778
41
0.1778
0
VERTEX
8
100
10
113.2332
20
94.6912
0
VERTEX
8
100
10
116.8400
20
94.6912
0
SEQEND
0
POLYLINE
8
100
66
1
40
0.1778
41
0.1778
0
VERTEX
8
100
10
113.2332
20
93.2688
0
VERTEX
8
100
10
113.2332
20
94.6912
0
SEQEND
0
POLYLINE
8
100
66
1
40
0.1778
41
0.1778
0
VERTEX
8
100
10
113.2332
20
93.2688
0
VERTEX
8
100
10
116.8400
20
93.2688
0
SEQEND
0
TEXT
8
100
40
1.5240
1
R14
7
standard
50
0.000
10
107.9500
20
90.8050
0
SOLID
8
100
10
115.6970
20
90.8939
11
115.6970
21
91.9861
12
116.7130
22
90.8939
13
116.7130
23
91.9861
0
CIRCLE
8
100
62
7
10
116.2050
20
91.4400
40
0.0000
0
SOLID
8
100
10
113.3602
20
90.8939
11
113.3602
21
91.9861
12
114.3762
22
90.8939
13
114.3762
23
91.9861
0
CIRCLE
8
100
62
7
10
113.8682
20
91.4400
40
0.0000
0
POLYLINE
8
100
66
1
40
0.1778
41
0.1778
0
VERTEX
8
100
10
113.2332
20
90.7288
0
VERTEX
8
100
10
116.8400
20
90.7288
0
SEQEND
0
POLYLINE
8
100
66
1
40
0.1778
41
0.1778
0
VERTEX
8
100
10
113.2332
20
90.7288
0
VERTEX
8
100
10
113.2332
20
92.1512
0
SEQEND
0
POLYLINE
8
100
66
1
40
0.1778
41
0.1778
0
VERTEX
8
100
10
113.2332
20
92.1512
0
VERTEX
8
100
10
116.8400
20
92.1512
0
SEQEND
0
POLYLINE
8
100
66
1
40
0.1778
41
0.1778
0
VERTEX
8
100
10
116.8400
20
90.7288
0
VERTEX
8
100
10
116.8400
20
92.1512
0
SEQEND
0
TEXT
8
100
40
1.5240
1
C25
7
standard
50
0.000
10
107.9500
20
86.9950
0
SOLID
8
100
10
115.6970
20
87.0839
11
115.6970
21
88.1761
12
116.7130
22
87.0839
13
116.7130
23
88.1761
0
CIRCLE
8
100
62
7
10
116.2050
20
87.6300
40
0.0000
0
SOLID
8
100
10
113.3602
20
87.0839
11
113.3602
21
88.1761
12
114.3762
22
87.0839
13
114.3762
23
88.1761
0
CIRCLE
8
100
62
7
10
113.8682
20
87.6300
40
0.0000
0
POLYLINE
8
100
66
1
40
0.1778
41
0.1778
0
VERTEX
8
100
10
116.8400
20
86.9188
0
VERTEX
8
100
10
116.8400
20
88.3412
0
SEQEND
0
POLYLINE
8
100
66
1
40
0.1778
41
0.1778
0
VERTEX
8
100
10
113.2332
20
88.3412
0
VERTEX
8
100
10
116.8400
20
88.3412
0
SEQEND
0
POLYLINE
8
100
66
1
40
0.1778
41
0.1778
0
VERTEX
8
100
10
113.2332
20
86.9188
0
VERTEX
8
100
10
113.2332
20
88.3412
0
SEQEND
0
POLYLINE
8
100
66
1
40
0.1778
41
0.1778
0
VERTEX
8
100
10
113.2332
20
86.9188
0
VERTEX
8
100
10
116.8400
20
86.9188
0
SEQEND
0
TEXT
8
100
40
1.5240
1
R15
7
standard
50
0.000
10
109.4740
20
74.8030
0
SOLID
8
100
10
116.0780
20
75.0189
11
116.0780
21
76.1111
12
117.0940
22
75.0189
13
117.0940
23
76.1111
0
CIRCLE
8
100
62
7
10
116.5860
20
75.5650
40
0.0000
0
SOLID
8
100
10
113.7412
20
75.0189
11
113.7412
21
76.1111
12
114.7572
22
75.0189
13
114.7572
23
76.1111
0
CIRCLE
8
100
62
7
10
114.2492
20
75.5650
40
0.0000
0
POLYLINE
8
100
66
1
40
0.1778
41
0.1778
0
VERTEX
8
100
10
117.2210
20
74.8538
0
VERTEX
8
100
10
117.2210
20
76.2762
0
SEQEND
0
POLYLINE
8
100
66
1
40
0.1778
41
0.1778
0
VERTEX
8
100
10
113.6142
20
76.2762
0
VERTEX
8
100
10
117.2210
20
76.2762
0
SEQEND
0
POLYLINE
8
100
66
1
40
0.1778
41
0.1778
0
VERTEX
8
100
10
113.6142
20
74.8538
0
VERTEX
8
100
10
113.6142
20
76.2762
0
SEQEND
0
POLYLINE
8
100
66
1
40
0.1778
41
0.1778
0
VERTEX
8
100
10
113.6142
20
74.8538
0
VERTEX
8
100
10
117.2210
20
74.8538
0
SEQEND
0
TEXT
8
100
40
1.5240
1
L4
7
standard
50
0.000
10
116.9670
20
88.6460
0
SOLID
8
100
10
120.7770
20
87.0839
11
120.7770
21
88.1761
12
121.7930
22
87.0839
13
121.7930
23
88.1761
0
CIRCLE
8
100
62
7
10
121.2850
20
87.6300
40
0.0000
0
SOLID
8
100
10
118.4402
20
87.0839
11
118.4402
21
88.1761
12
119.4562
22
87.0839
13
119.4562
23
88.1761
0
CIRCLE
8
100
62
7
10
118.9482
20
87.6300
40
0.0000
0
POLYLINE
8
100
66
1
40
0.1778
41
0.1778
0
VERTEX
8
100
10
121.9200
20
86.9188
0
VERTEX
8
100
10
121.9200
20
88.3412
0
SEQEND
0
POLYLINE
8
100
66
1
40
0.1778
41
0.1778
0
VERTEX
8
100
10
118.3132
20
88.3412
0
VERTEX
8
100
10
121.9200
20
88.3412
0
SEQEND
0
POLYLINE
8
100
66
1
40
0.1778
41
0.1778
0
VERTEX
8
100
10
118.3132
20
86.9188
0
VERTEX
8
100
10
118.3132
20
88.3412
0
SEQEND
0
POLYLINE
8
100
66
1
40
0.1778
41
0.1778
0
VERTEX
8
100
10
118.3132
20
86.9188
0
VERTEX
8
100
10
121.9200
20
86.9188
0
SEQEND
0
TEXT
8
100
40
1.5240
1
C35
7
standard
50
0.000
10
88.9000
20
77.4700
0
SOLID
8
100
10
91.5670
20
75.6539
11
91.5670
21
76.7461
12
92.5830
22
75.6539
13
92.5830
23
76.7461
0
CIRCLE
8
100
62
7
10
92.0750
20
76.2000
40
0.0000
0
SOLID
8
100
10
89.2302
20
75.6539
11
89.2302
21
76.7461
12
90.2462
22
75.6539
13
90.2462
23
76.7461
0
CIRCLE
8
100
62
7
10
89.7382
20
76.2000
40
0.0000
0
POLYLINE
8
100
66
1
40
0.1778
41
0.1778
0
VERTEX
8
100
10
92.7100
20
75.4888
0
VERTEX
8
100
10
92.7100
20
76.9112
0
SEQEND
0
POLYLINE
8
100
66
1
40
0.1778
41
0.1778
0
VERTEX
8
100
10
89.1032
20
76.9112
0
VERTEX
8
100
10
92.7100
20
76.9112
0
SEQEND
0
POLYLINE
8
100
66
1
40
0.1778
41
0.1778
0
VERTEX
8
100
10
89.1032
20
75.4888
0
VERTEX
8
100
10
89.1032
20
76.9112
0
SEQEND
0
POLYLINE
8
100
66
1
40
0.1778
41
0.1778
0
VERTEX
8
100
10
89.1032
20
75.4888
0
VERTEX
8
100
10
92.7100
20
75.4888
0
SEQEND
0
TEXT
8
100
40
1.5240
1
C32
7
standard
50
0.000
10
97.7900
20
92.0750
0
SOLID
8
100
10
103.5939
20
90.9320
11
103.5939
21
91.9480
12
104.6861
22
90.9320
13
104.6861
23
91.9480
0
CIRCLE
8
100
62
7
10
104.1400
20
91.4400
40
0.0000
0
SOLID
8
100
10
103.5939
20
93.2688
11
103.5939
21
94.2848
12
104.6861
22
93.2688
13
104.6861
23
94.2848
0
CIRCLE
8
100
62
7
10
104.1400
20
93.7768
40
0.0000
0
POLYLINE
8
100
66
1
40
0.1778
41
0.1778
0
VERTEX
8
100
10
103.4288
20
90.8050
0
VERTEX
8
100
10
103.4288
20
94.4118
0
SEQEND
0
POLYLINE
8
100
66
1
40
0.1778
41
0.1778
0
VERTEX
8
100
10
103.4288
20
94.4118
0
VERTEX
8
100
10
104.8512
20
94.4118
0
SEQEND
0
POLYLINE
8
100
66
1
40
0.1778
41
0.1778
0
VERTEX
8
100
10
104.8512
20
90.8050
0
VERTEX
8
100
10
104.8512
20
94.4118
0
SEQEND
0
POLYLINE
8
100
66
1
40
0.1778
41
0.1778
0
VERTEX
8
100
10
103.4288
20
90.8050
0
VERTEX
8
100
10
104.8512
20
90.8050
0
SEQEND
0
TEXT
8
100
40
1.5240
1
L8
7
standard
50
0.000
10
122.5550
20
95.7580
0
SOLID
8
100
10
120.7389
20
95.3770
11
120.7389
21
96.3930
12
121.8311
22
95.3770
13
121.8311
23
96.3930
0
CIRCLE
8
100
62
7
10
121.2850
20
95.8850
40
0.0000
0
SOLID
8
100
10
120.7389
20
97.7138
11
120.7389
21
98.7298
12
121.8311
22
97.7138
13
121.8311
23
98.7298
0
CIRCLE
8
100
62
7
10
121.2850
20
98.2218
40
0.0000
0
POLYLINE
8
100
66
1
40
0.1778
41
0.1778
0
VERTEX
8
100
10
120.5738
20
95.2500
0
VERTEX
8
100
10
121.9962
20
95.2500
0
SEQEND
0
POLYLINE
8
100
66
1
40
0.1778
41
0.1778
0
VERTEX
8
100
10
121.9962
20
95.2500
0
VERTEX
8
100
10
121.9962
20
98.8568
0
SEQEND
0
POLYLINE
8
100
66
1
40
0.1778
41
0.1778
0
VERTEX
8
100
10
120.5738
20
98.8568
0
VERTEX
8
100
10
121.9962
20
98.8568
0
SEQEND
0
POLYLINE
8
100
66
1
40
0.1778
41
0.1778
0
VERTEX
8
100
10
120.5738
20
95.2500
0
VERTEX
8
100
10
120.5738
20
98.8568
0
SEQEND
0
TEXT
8
100
40
1.5240
1
L7
7
standard
50
0.000
10
122.6820
20
91.5670
0
SOLID
8
100
10
120.7389
20
90.2970
11
120.7389
21
91.3130
12
121.8311
22
90.2970
13
121.8311
23
91.3130
0
CIRCLE
8
100
62
7
10
121.2850
20
90.8050
40
0.0000
0
SOLID
8
100
10
120.7389
20
92.6338
11
120.7389
21
93.6498
12
121.8311
22
92.6338
13
121.8311
23
93.6498
0
CIRCLE
8
100
62
7
10
121.2850
20
93.1418
40
0.0000
0
POLYLINE
8
100
66
1
40
0.1778
41
0.1778
0
VERTEX
8
100
10
120.5738
20
90.1700
0
VERTEX
8
100
10
120.5738
20
93.7768
0
SEQEND
0
POLYLINE
8
100
66
1
40
0.1778
41
0.1778
0
VERTEX
8
100
10
120.5738
20
93.7768
0
VERTEX
8
100
10
121.9962
20
93.7768
0
SEQEND
0
POLYLINE
8
100
66
1
40
0.1778
41
0.1778
0
VERTEX
8
100
10
121.9962
20
90.1700
0
VERTEX
8
100
10
121.9962
20
93.7768
0
SEQEND
0
POLYLINE
8
100
66
1
40
0.1778
41
0.1778
0
VERTEX
8
100
10
120.5738
20
90.1700
0
VERTEX
8
100
10
121.9962
20
90.1700
0
SEQEND
0
TEXT
8
100
40
1.5240
1
C30
7
standard
50
0.000
10
124.8410
20
88.6460
0
SOLID
8
100
10
123.0630
20
88.7349
11
123.0630
21
89.8271
12
124.0790
22
88.7349
13
124.0790
23
89.8271
0
CIRCLE
8
100
62
7
10
123.5710
20
89.2810
40
0.0000
0
SOLID
8
100
10
120.7262
20
88.7349
11
120.7262
21
89.8271
12
121.7422
22
88.7349
13
121.7422
23
89.8271
0
CIRCLE
8
100
62
7
10
121.2342
20
89.2810
40
0.0000
0
POLYLINE
8
100
66
1
40
0.1778
41
0.1778
0
VERTEX
8
100
10
124.2060
20
88.5698
0
VERTEX
8
100
10
124.2060
20
89.9922
0
SEQEND
0
POLYLINE
8
100
66
1
40
0.1778
41
0.1778
0
VERTEX
8
100
10
120.5992
20
89.9922
0
VERTEX
8
100
10
124.2060
20
89.9922
0
SEQEND
0
POLYLINE
8
100
66
1
40
0.1778
41
0.1778
0
VERTEX
8
100
10
120.5992
20
88.5698
0
VERTEX
8
100
10
120.5992
20
89.9922
0
SEQEND
0
POLYLINE
8
100
66
1
40
0.1778
41
0.1778
0
VERTEX
8
100
10
120.5992
20
88.5698
0
VERTEX
8
100
10
124.2060
20
88.5698
0
SEQEND
0
TEXT
8
100
40
1.5240
1
C31
7
standard
50
0.000
10
124.8410
20
99.5680
0
SOLID
8
100
10
123.0630
20
99.9109
11
123.0630
21
101.0031
12
124.0790
22
99.9109
13
124.0790
23
101.0031
0
CIRCLE
8
100
62
7
10
123.5710
20
100.4570
40
0.0000
0
SOLID
8
100
10
120.7262
20
99.9109
11
120.7262
21
101.0031
12
121.7422
22
99.9109
13
121.7422
23
101.0031
0
CIRCLE
8
100
62
7
10
121.2342
20
100.4570
40
0.0000
0
POLYLINE
8
100
66
1
40
0.1778
41
0.1778
0
VERTEX
8
100
10
120.5992
20
99.7458
0
VERTEX
8
100
10
124.2060
20
99.7458
0
SEQEND
0
POLYLINE
8
100
66
1
40
0.1778
41
0.1778
0
VERTEX
8
100
10
120.5992
20
99.7458
0
VERTEX
8
100
10
120.5992
20
101.1682
0
SEQEND
0
POLYLINE
8
100
66
1
40
0.1778
41
0.1778
0
VERTEX
8
100
10
120.5992
20
101.1682
0
VERTEX
8
100
10
124.2060
20
101.1682
0
SEQEND
0
POLYLINE
8
100
66
1
40
0.1778
41
0.1778
0
VERTEX
8
100
10
124.2060
20
99.7458
0
VERTEX
8
100
10
124.2060
20
101.1682
0
SEQEND
0
TEXT
8
100
40
1.5240
1
C29
7
standard
50
0.000
10
122.6820
20
73.1520
0
SOLID
8
100
10
123.0630
20
75.9079
11
123.0630
21
77.0001
12
124.0790
22
75.9079
13
124.0790
23
77.0001
0
CIRCLE
8
100
62
7
10
123.5710
20
76.4540
40
0.0000
0
SOLID
8
100
10
120.7262
20
75.9079
11
120.7262
21
77.0001
12
121.7422
22
75.9079
13
121.7422
23
77.0001
0
CIRCLE
8
100
62
7
10
121.2342
20
76.4540
40
0.0000
0
POLYLINE
8
100
66
1
40
0.1778
41
0.1778
0
VERTEX
8
100
10
124.2060
20
75.7428
0
VERTEX
8
100
10
124.2060
20
77.1652
0
SEQEND
0
POLYLINE
8
100
66
1
40
0.1778
41
0.1778
0
VERTEX
8
100
10
120.5992
20
77.1652
0
VERTEX
8
100
10
124.2060
20
77.1652
0
SEQEND
0
POLYLINE
8
100
66
1
40
0.1778
41
0.1778
0
VERTEX
8
100
10
120.5992
20
75.7428
0
VERTEX
8
100
10
120.5992
20
77.1652
0
SEQEND
0
POLYLINE
8
100
66
1
40
0.1778
41
0.1778
0
VERTEX
8
100
10
120.5992
20
75.7428
0
VERTEX
8
100
10
124.2060
20
75.7428
0
SEQEND
0
TEXT
8
100
40
1.5240
1
C28
7
standard
50
0.000
10
122.5550
20
64.1350
0
SOLID
8
100
10
120.7770
20
64.2239
11
120.7770
21
65.3161
12
121.7930
22
64.2239
13
121.7930
23
65.3161
0
CIRCLE
8
100
62
7
10
121.2850
20
64.7700
40
0.0000
0
SOLID
8
100
10
118.4402
20
64.2239
11
118.4402
21
65.3161
12
119.4562
22
64.2239
13
119.4562
23
65.3161
0
CIRCLE
8
100
62
7
10
118.9482
20
64.7700
40
0.0000
0
POLYLINE
8
100
66
1
40
0.1778
41
0.1778
0
VERTEX
8
100
10
118.3132
20
64.0588
0
VERTEX
8
100
10
121.9200
20
64.0588
0
SEQEND
0
POLYLINE
8
100
66
1
40
0.1778
41
0.1778
0
VERTEX
8
100
10
118.3132
20
64.0588
0
VERTEX
8
100
10
118.3132
20
65.4812
0
SEQEND
0
POLYLINE
8
100
66
1
40
0.1778
41
0.1778
0
VERTEX
8
100
10
118.3132
20
65.4812
0
VERTEX
8
100
10
121.9200
20
65.4812
0
SEQEND
0
POLYLINE
8
100
66
1
40
0.1778
41
0.1778
0
VERTEX
8
100
10
121.9200
20
64.0588
0
VERTEX
8
100
10
121.9200
20
65.4812
0
SEQEND
0
TEXT
8
100
40
1.5240
1
L6
7
standard
50
0.000
10
117.3480
20
71.8820
0
SOLID
8
100
10
120.7389
20
71.8820
11
120.7389
21
72.8980
12
121.8311
22
71.8820
13
121.8311
23
72.8980
0
CIRCLE
8
100
62
7
10
121.2850
20
72.3900
40
0.0000
0
SOLID
8
100
10
120.7389
20
74.2188
11
120.7389
21
75.2348
12
121.8311
22
74.2188
13
121.8311
23
75.2348
0
CIRCLE
8
100
62
7
10
121.2850
20
74.7268
40
0.0000
0
POLYLINE
8
100
66
1
40
0.1778
41
0.1778
0
VERTEX
8
100
10
120.5738
20
71.7550
0
VERTEX
8
100
10
120.5738
20
75.3618
0
SEQEND
0
POLYLINE
8
100
66
1
40
0.1778
41
0.1778
0
VERTEX
8
100
10
120.5738
20
75.3618
0
VERTEX
8
100
10
121.9962
20
75.3618
0
SEQEND
0
POLYLINE
8
100
66
1
40
0.1778
41
0.1778
0
VERTEX
8
100
10
121.9962
20
71.7550
0
VERTEX
8
100
10
121.9962
20
75.3618
0
SEQEND
0
POLYLINE
8
100
66
1
40
0.1778
41
0.1778
0
VERTEX
8
100
10
120.5738
20
71.7550
0
VERTEX
8
100
10
121.9962
20
71.7550
0
SEQEND
0
TEXT
8
100
40
1.5240
1
L5
7
standard
50
0.000
10
122.6820
20
67.1830
0
SOLID
8
100
10
120.7389
20
66.8020
11
120.7389
21
67.8180
12
121.8311
22
66.8020
13
121.8311
23
67.8180
0
CIRCLE
8
100
62
7
10
121.2850
20
67.3100
40
0.0000
0
SOLID
8
100
10
120.7389
20
69.1388
11
120.7389
21
70.1548
12
121.8311
22
69.1388
13
121.8311
23
70.1548
0
CIRCLE
8
100
62
7
10
121.2850
20
69.6468
40
0.0000
0
POLYLINE
8
100
66
1
40
0.1778
41
0.1778
0
VERTEX
8
100
10
120.5738
20
66.6750
0
VERTEX
8
100
10
120.5738
20
70.2818
0
SEQEND
0
POLYLINE
8
100
66
1
40
0.1778
41
0.1778
0
VERTEX
8
100
10
120.5738
20
70.2818
0
VERTEX
8
100
10
121.9962
20
70.2818
0
SEQEND
0
POLYLINE
8
100
66
1
40
0.1778
41
0.1778
0
VERTEX
8
100
10
121.9962
20
66.6750
0
VERTEX
8
100
10
121.9962
20
70.2818
0
SEQEND
0
POLYLINE
8
100
66
1
40
0.1778
41
0.1778
0
VERTEX
8
100
10
120.5738
20
66.6750
0
VERTEX
8
100
10
121.9962
20
66.6750
0
SEQEND
0
TEXT
8
100
40
1.5240
1
C27
7
standard
50
0.000
10
106.0450
20
56.5150
0
SOLID
8
100
10
103.5939
20
55.3720
11
103.5939
21
56.3880
12
104.6861
22
55.3720
13
104.6861
23
56.3880
0
CIRCLE
8
100
62
7
10
104.1400
20
55.8800
40
0.0000
0
SOLID
8
100
10
103.5939
20
57.7088
11
103.5939
21
58.7248
12
104.6861
22
57.7088
13
104.6861
23
58.7248
0
CIRCLE
8
100
62
7
10
104.1400
20
58.2168
40
0.0000
0
POLYLINE
8
100
66
1
40
0.1778
41
0.1778
0
VERTEX
8
100
10
103.4288
20
55.2450
0
VERTEX
8
100
10
103.4288
20
58.8518
0
SEQEND
0
POLYLINE
8
100
66
1
40
0.1778
41
0.1778
0
VERTEX
8
100
10
103.4288
20
58.8518
0
VERTEX
8
100
10
104.8512
20
58.8518
0
SEQEND
0
POLYLINE
8
100
66
1
40
0.1778
41
0.1778
0
VERTEX
8
100
10
104.8512
20
55.2450
0
VERTEX
8
100
10
104.8512
20
58.8518
0
SEQEND
0
POLYLINE
8
100
66
1
40
0.1778
41
0.1778
0
VERTEX
8
100
10
103.4288
20
55.2450
0
VERTEX
8
100
10
104.8512
20
55.2450
0
SEQEND
0
TEXT
8
100
40
1.5240
1
C24
7
standard
50
0.000
10
111.1250
20
38.7350
0
SOLID
8
100
10
111.2520
20
36.9189
11
111.2520
21
38.0111
12
112.2680
22
36.9189
13
112.2680
23
38.0111
0
CIRCLE
8
100
62
7
10
111.7600
20
37.4650
40
0.0000
0
SOLID
8
100
10
113.5888
20
36.9189
11
113.5888
21
38.0111
12
114.6048
22
36.9189
13
114.6048
23
38.0111
0
CIRCLE
8
100
62
7
10
114.0968
20
37.4650
40
0.0000
0
POLYLINE
8
100
66
1
40
0.1778
41
0.1778
0
VERTEX
8
100
10
111.1250
20
38.1762
0
VERTEX
8
100
10
114.7318
20
38.1762
0
SEQEND
0
POLYLINE
8
100
66
1
40
0.1778
41
0.1778
0
VERTEX
8
100
10
114.7318
20
36.7538
0
VERTEX
8
100
10
114.7318
20
38.1762
0
SEQEND
0
POLYLINE
8
100
66
1
40
0.1778
41
0.1778
0
VERTEX
8
100
10
111.1250
20
36.7538
0
VERTEX
8
100
10
114.7318
20
36.7538
0
SEQEND
0
POLYLINE
8
100
66
1
40
0.1778
41
0.1778
0
VERTEX
8
100
10
111.1250
20
36.7538
0
VERTEX
8
100
10
111.1250
20
38.1762
0
SEQEND
0
TEXT
8
100
40
1.5240
1
C23
7
standard
50
0.000
10
122.5550
20
48.8950
0
SOLID
8
100
10
120.7389
20
47.7520
11
120.7389
21
48.7680
12
121.8311
22
47.7520
13
121.8311
23
48.7680
0
CIRCLE
8
100
62
7
10
121.2850
20
48.2600
40
0.0000
0
SOLID
8
100
10
120.7389
20
50.0888
11
120.7389
21
51.1048
12
121.8311
22
50.0888
13
121.8311
23
51.1048
0
CIRCLE
8
100
62
7
10
121.2850
20
50.5968
40
0.0000
0
POLYLINE
8
100
66
1
40
0.1778
41
0.1778
0
VERTEX
8
100
10
120.5738
20
47.6250
0
VERTEX
8
100
10
121.9962
20
47.6250
0
SEQEND
0
POLYLINE
8
100
66
1
40
0.1778
41
0.1778
0
VERTEX
8
100
10
121.9962
20
47.6250
0
VERTEX
8
100
10
121.9962
20
51.2318
0
SEQEND
0
POLYLINE
8
100
66
1
40
0.1778
41
0.1778
0
VERTEX
8
100
10
120.5738
20
51.2318
0
VERTEX
8
100
10
121.9962
20
51.2318
0
SEQEND
0
POLYLINE
8
100
66
1
40
0.1778
41
0.1778
0
VERTEX
8
100
10
120.5738
20
47.6250
0
VERTEX
8
100
10
120.5738
20
51.2318
0
SEQEND
0
TEXT
8
100
40
1.5240
1
C22
7
standard
50
0.000
10
111.1250
20
43.1800
0
SOLID
8
100
10
111.2520
20
41.3639
11
111.2520
21
42.4561
12
112.2680
22
41.3639
13
112.2680
23
42.4561
0
CIRCLE
8
100
62
7
10
111.7600
20
41.9100
40
0.0000
0
SOLID
8
100
10
113.5888
20
41.3639
11
113.5888
21
42.4561
12
114.6048
22
41.3639
13
114.6048
23
42.4561
0
CIRCLE
8
100
62
7
10
114.0968
20
41.9100
40
0.0000
0
POLYLINE
8
100
66
1
40
0.1778
41
0.1778
0
VERTEX
8
100
10
111.1250
20
42.6212
0
VERTEX
8
100
10
114.7318
20
42.6212
0
SEQEND
0
POLYLINE
8
100
66
1
40
0.1778
41
0.1778
0
VERTEX
8
100
10
114.7318
20
41.1988
0
VERTEX
8
100
10
114.7318
20
42.6212
0
SEQEND
0
POLYLINE
8
100
66
1
40
0.1778
41
0.1778
0
VERTEX
8
100
10
111.1250
20
41.1988
0
VERTEX
8
100
10
114.7318
20
41.1988
0
SEQEND
0
POLYLINE
8
100
66
1
40
0.1778
41
0.1778
0
VERTEX
8
100
10
111.1250
20
41.1988
0
VERTEX
8
100
10
111.1250
20
42.6212
0
SEQEND
0
TEXT
8
100
40
1.5240
1
C21
7
standard
50
0.000
10
123.1900
20
36.1950
0
SOLID
8
100
10
120.7389
20
35.0520
11
120.7389
21
36.0680
12
121.8311
22
35.0520
13
121.8311
23
36.0680
0
CIRCLE
8
100
62
7
10
121.2850
20
35.5600
40
0.0000
0
SOLID
8
100
10
120.7389
20
37.3888
11
120.7389
21
38.4048
12
121.8311
22
37.3888
13
121.8311
23
38.4048
0
CIRCLE
8
100
62
7
10
121.2850
20
37.8968
40
0.0000
0
POLYLINE
8
100
66
1
40
0.1778
41
0.1778
0
VERTEX
8
100
10
120.5738
20
34.9250
0
VERTEX
8
100
10
121.9962
20
34.9250
0
SEQEND
0
POLYLINE
8
100
66
1
40
0.1778
41
0.1778
0
VERTEX
8
100
10
121.9962
20
34.9250
0
VERTEX
8
100
10
121.9962
20
38.5318
0
SEQEND
0
POLYLINE
8
100
66
1
40
0.1778
41
0.1778
0
VERTEX
8
100
10
120.5738
20
38.5318
0
VERTEX
8
100
10
121.9962
20
38.5318
0
SEQEND
0
POLYLINE
8
100
66
1
40
0.1778
41
0.1778
0
VERTEX
8
100
10
120.5738
20
34.9250
0
VERTEX
8
100
10
120.5738
20
38.5318
0
SEQEND
0
TEXT
8
100
40
1.5240
1
C16
7
standard
50
0.000
10
95.8850
20
34.2900
0
SOLID
8
100
10
96.0120
20
32.4739
11
96.0120
21
33.5661
12
97.0280
22
32.4739
13
97.0280
23
33.5661
0
CIRCLE
8
100
62
7
10
96.5200
20
33.0200
40
0.0000
0
SOLID
8
100
10
98.3488
20
32.4739
11
98.3488
21
33.5661
12
99.3648
22
32.4739
13
99.3648
23
33.5661
0
CIRCLE
8
100
62
7
10
98.8568
20
33.0200
40
0.0000
0
POLYLINE
8
100
66
1
40
0.1778
41
0.1778
0
VERTEX
8
100
10
95.8850
20
32.3088
0
VERTEX
8
100
10
95.8850
20
33.7312
0
SEQEND
0
POLYLINE
8
100
66
1
40
0.1778
41
0.1778
0
VERTEX
8
100
10
95.8850
20
32.3088
0
VERTEX
8
100
10
99.4918
20
32.3088
0
SEQEND
0
POLYLINE
8
100
66
1
40
0.1778
41
0.1778
0
VERTEX
8
100
10
99.4918
20
32.3088
0
VERTEX
8
100
10
99.4918
20
33.7312
0
SEQEND
0
POLYLINE
8
100
66
1
40
0.1778
41
0.1778
0
VERTEX
8
100
10
95.8850
20
33.7312
0
VERTEX
8
100
10
99.4918
20
33.7312
0
SEQEND
0
TEXT
8
100
40
1.5240
1
L3
7
standard
50
0.000
10
91.1860
20
33.9090
0
SOLID
8
100
10
89.4969
20
32.5120
11
89.4969
21
33.5280
12
90.5891
22
32.5120
13
90.5891
23
33.5280
0
CIRCLE
8
100
62
7
10
90.0430
20
33.0200
40
0.0000
0
SOLID
8
100
10
89.4969
20
34.8488
11
89.4969
21
35.8648
12
90.5891
22
34.8488
13
90.5891
23
35.8648
0
CIRCLE
8
100
62
7
10
90.0430
20
35.3568
40
0.0000
0
POLYLINE
8
100
66
1
40
0.1778
41
0.1778
0
VERTEX
8
100
10
89.3318
20
32.3850
0
VERTEX
8
100
10
89.3318
20
35.9918
0
SEQEND
0
POLYLINE
8
100
66
1
40
0.1778
41
0.1778
0
VERTEX
8
100
10
89.3318
20
35.9918
0
VERTEX
8
100
10
90.7542
20
35.9918
0
SEQEND
0
POLYLINE
8
100
66
1
40
0.1778
41
0.1778
0
VERTEX
8
100
10
90.7542
20
32.3850
0
VERTEX
8
100
10
90.7542
20
35.9918
0
SEQEND
0
POLYLINE
8
100
66
1
40
0.1778
41
0.1778
0
VERTEX
8
100
10
89.3318
20
32.3850
0
VERTEX
8
100
10
90.7542
20
32.3850
0
SEQEND
0
TEXT
8
100
40
1.5240
1
C15
7
standard
50
0.000
10
88.9000
20
41.9100
0
SOLID
8
100
10
89.0270
20
40.0939
11
89.0270
21
41.1861
12
90.0430
22
40.0939
13
90.0430
23
41.1861
0
CIRCLE
8
100
62
7
10
89.5350
20
40.6400
40
0.0000
0
SOLID
8
100
10
91.3638
20
40.0939
11
91.3638
21
41.1861
12
92.3798
22
40.0939
13
92.3798
23
41.1861
0
CIRCLE
8
100
62
7
10
91.8718
20
40.6400
40
0.0000
0
POLYLINE
8
100
66
1
40
0.1778
41
0.1778
0
VERTEX
8
100
10
88.9000
20
39.9288
0
VERTEX
8
100
10
88.9000
20
41.3512
0
SEQEND
0
POLYLINE
8
100
66
1
40
0.1778
41
0.1778
0
VERTEX
8
100
10
88.9000
20
39.9288
0
VERTEX
8
100
10
92.5068
20
39.9288
0
SEQEND
0
POLYLINE
8
100
66
1
40
0.1778
41
0.1778
0
VERTEX
8
100
10
92.5068
20
39.9288
0
VERTEX
8
100
10
92.5068
20
41.3512
0
SEQEND
0
POLYLINE
8
100
66
1
40
0.1778
41
0.1778
0
VERTEX
8
100
10
88.9000
20
41.3512
0
VERTEX
8
100
10
92.5068
20
41.3512
0
SEQEND
0
TEXT
8
100
40
1.5240
1
C14
7
standard
50
0.000
10
35.3060
20
48.1330
0
SOLID
8
100
10
35.4330
20
46.3169
11
35.4330
21
47.4091
12
36.4490
22
46.3169
13
36.4490
23
47.4091
0
CIRCLE
8
100
62
7
10
35.9410
20
46.8630
40
0.0000
0
SOLID
8
100
10
37.7698
20
46.3169
11
37.7698
21
47.4091
12
38.7858
22
46.3169
13
38.7858
23
47.4091
0
CIRCLE
8
100
62
7
10
38.2778
20
46.8630
40
0.0000
0
POLYLINE
8
100
66
1
40
0.1778
41
0.1778
0
VERTEX
8
100
10
35.3060
20
47.5742
0
VERTEX
8
100
10
38.9128
20
47.5742
0
SEQEND
0
POLYLINE
8
100
66
1
40
0.1778
41
0.1778
0
VERTEX
8
100
10
38.9128
20
46.1518
0
VERTEX
8
100
10
38.9128
20
47.5742
0
SEQEND
0
POLYLINE
8
100
66
1
40
0.1778
41
0.1778
0
VERTEX
8
100
10
35.3060
20
46.1518
0
VERTEX
8
100
10
38.9128
20
46.1518
0
SEQEND
0
POLYLINE
8
100
66
1
40
0.1778
41
0.1778
0
VERTEX
8
100
10
35.3060
20
46.1518
0
VERTEX
8
100
10
35.3060
20
47.5742
0
SEQEND
0
TEXT
8
100
40
1.5240
1
C12
7
standard
50
0.000
10
35.5600
20
40.0050
0
SOLID
8
100
10
35.6870
20
38.1889
11
35.6870
21
39.2811
12
36.7030
22
38.1889
13
36.7030
23
39.2811
0
CIRCLE
8
100
62
7
10
36.1950
20
38.7350
40
0.0000
0
SOLID
8
100
10
38.0238
20
38.1889
11
38.0238
21
39.2811
12
39.0398
22
38.1889
13
39.0398
23
39.2811
0
CIRCLE
8
100
62
7
10
38.5318
20
38.7350
40
0.0000
0
POLYLINE
8
100
66
1
40
0.1778
41
0.1778
0
VERTEX
8
100
10
35.5600
20
39.4462
0
VERTEX
8
100
10
39.1668
20
39.4462
0
SEQEND
0
POLYLINE
8
100
66
1
40
0.1778
41
0.1778
0
VERTEX
8
100
10
39.1668
20
38.0238
0
VERTEX
8
100
10
39.1668
20
39.4462
0
SEQEND
0
POLYLINE
8
100
66
1
40
0.1778
41
0.1778
0
VERTEX
8
100
10
35.5600
20
38.0238
0
VERTEX
8
100
10
39.1668
20
38.0238
0
SEQEND
0
POLYLINE
8
100
66
1
40
0.1778
41
0.1778
0
VERTEX
8
100
10
35.5600
20
38.0238
0
VERTEX
8
100
10
35.5600
20
39.4462
0
SEQEND
0
TEXT
8
100
40
1.5240
1
LED1
7
standard
50
0.000
10
27.9400
20
125.7300
0
ARC
8
100
10
29.8450
20
121.9200
39
0.2540
40
2.9464
50
0.000
51
90.000
0
ARC
8
100
10
29.8450
20
121.9200
39
0.2540
40
2.9464
50
90.000
51
180.000
0
ARC
8
100
10
29.8450
20
121.9200
39
0.2540
40
2.9464
50
180.000
51
270.000
0
ARC
8
100
10
29.8450
20
121.9200
39
0.2540
40
2.9464
50
270.000
51
0.000
0
CIRCLE
8
100
62
7
10
28.5750
20
121.9200
40
0.6350
0
POLYLINE
8
100
66
1
40
0.0508
41
0.0508
0
VERTEX
8
100
10
28.2575
20
121.9200
42
1.0
0
VERTEX
8
100
10
28.8925
20
121.9200
42
1.0
0
VERTEX
8
100
10
28.2575
20
121.9200
0
SEQEND
0
CIRCLE
8
100
62
7
10
28.5750
20
121.9200
40
0.3810
0
CIRCLE
8
100
62
7
10
31.1150
20
121.9200
40
0.6350
0
POLYLINE
8
100
66
1
40
0.0508
41
0.0508
0
VERTEX
8
100
10
30.7975
20
121.9200
42
1.0
0
VERTEX
8
100
10
31.4325
20
121.9200
42
1.0
0
VERTEX
8
100
10
30.7975
20
121.9200
0
SEQEND
0
CIRCLE
8
100
62
7
10
31.1150
20
121.9200
40
0.3810
0
POLYLINE
8
100
66
1
40
0.2540
41
0.2540
0
VERTEX
8
100
10
28.0670
20
123.4440
0
VERTEX
8
100
10
29.0830
20
123.4440
0
SEQEND
0
POLYLINE
8
100
66
1
40
0.2540
41
0.2540
0
VERTEX
8
100
10
28.5750
20
122.9360
0
VERTEX
8
100
10
28.5750
20
123.8250
0
SEQEND
0
POLYLINE
8
100
66
1
40
0.2540
41
0.2540
0
VERTEX
8
100
10
32.2580
20
120.3960
0
VERTEX
8
100
10
32.2580
20
123.5710
0
SEQEND
0
TEXT
8
100
40
1.5240
1
LED2
7
standard
50
0.000
10
27.3050
20
116.8400
0
ARC
8
100
10
29.8450
20
113.0300
39
0.2540
40
2.9464
50
0.000
51
90.000
0
ARC
8
100
10
29.8450
20
113.0300
39
0.2540
40
2.9464
50
90.000
51
180.000
0
ARC
8
100
10
29.8450
20
113.0300
39
0.2540
40
2.9464
50
180.000
51
270.000
0
ARC
8
100
10
29.8450
20
113.0300
39
0.2540
40
2.9464
50
270.000
51
0.000
0
CIRCLE
8
100
62
7
10
28.5750
20
113.0300
40
0.6350
0
POLYLINE
8
100
66
1
40
0.0508
41
0.0508
0
VERTEX
8
100
10
28.2575
20
113.0300
42
1.0
0
VERTEX
8
100
10
28.8925
20
113.0300
42
1.0
0
VERTEX
8
100
10
28.2575
20
113.0300
0
SEQEND
0
CIRCLE
8
100
62
7
10
28.5750
20
113.0300
40
0.3810
0
CIRCLE
8
100
62
7
10
31.1150
20
113.0300
40
0.6350
0
POLYLINE
8
100
66
1
40
0.0508
41
0.0508
0
VERTEX
8
100
10
30.7975
20
113.0300
42
1.0
0
VERTEX
8
100
10
31.4325
20
113.0300
42
1.0
0
VERTEX
8
100
10
30.7975
20
113.0300
0
SEQEND
0
CIRCLE
8
100
62
7
10
31.1150
20
113.0300
40
0.3810
0
POLYLINE
8
100
66
1
40
0.2540
41
0.2540
0
VERTEX
8
100
10
28.0670
20
114.5540
0
VERTEX
8
100
10
29.0830
20
114.5540
0
SEQEND
0
POLYLINE
8
100
66
1
40
0.2540
41
0.2540
0
VERTEX
8
100
10
28.5750
20
114.0460
0
VERTEX
8
100
10
28.5750
20
114.9350
0
SEQEND
0
POLYLINE
8
100
66
1
40
0.2540
41
0.2540
0
VERTEX
8
100
10
32.2580
20
111.5060
0
VERTEX
8
100
10
32.2580
20
114.6810
0
SEQEND
0
TEXT
8
100
40
1.5240
1
LED3
7
standard
50
0.000
10
27.3050
20
107.9500
0
ARC
8
100
10
29.8450
20
104.1400
39
0.2540
40
2.9464
50
0.000
51
90.000
0
ARC
8
100
10
29.8450
20
104.1400
39
0.2540
40
2.9464
50
90.000
51
180.000
0
ARC
8
100
10
29.8450
20
104.1400
39
0.2540
40
2.9464
50
180.000
51
270.000
0
ARC
8
100
10
29.8450
20
104.1400
39
0.2540
40
2.9464
50
270.000
51
0.000
0
CIRCLE
8
100
62
7
10
28.5750
20
104.1400
40
0.6350
0
POLYLINE
8
100
66
1
40
0.0508
41
0.0508
0
VERTEX
8
100
10
28.2575
20
104.1400
42
1.0
0
VERTEX
8
100
10
28.8925
20
104.1400
42
1.0
0
VERTEX
8
100
10
28.2575
20
104.1400
0
SEQEND
0
CIRCLE
8
100
62
7
10
28.5750
20
104.1400
40
0.3810
0
CIRCLE
8
100
62
7
10
31.1150
20
104.1400
40
0.6350
0
POLYLINE
8
100
66
1
40
0.0508
41
0.0508
0
VERTEX
8
100
10
30.7975
20
104.1400
42
1.0
0
VERTEX
8
100
10
31.4325
20
104.1400
42
1.0
0
VERTEX
8
100
10
30.7975
20
104.1400
0
SEQEND
0
CIRCLE
8
100
62
7
10
31.1150
20
104.1400
40
0.3810
0
POLYLINE
8
100
66
1
40
0.2540
41
0.2540
0
VERTEX
8
100
10
28.0670
20
105.6640
0
VERTEX
8
100
10
29.0830
20
105.6640
0
SEQEND
0
POLYLINE
8
100
66
1
40
0.2540
41
0.2540
0
VERTEX
8
100
10
28.5750
20
105.1560
0
VERTEX
8
100
10
28.5750
20
106.0450
0
SEQEND
0
POLYLINE
8
100
66
1
40
0.2540
41
0.2540
0
VERTEX
8
100
10
32.2580
20
102.6160
0
VERTEX
8
100
10
32.2580
20
105.7910
0
SEQEND
0
TEXT
8
100
40
1.5240
1
LED4
7
standard
50
0.000
10
26.6700
20
99.0600
0
ARC
8
100
10
29.8450
20
95.2500
39
0.2540
40
2.9464
50
0.000
51
90.000
0
ARC
8
100
10
29.8450
20
95.2500
39
0.2540
40
2.9464
50
90.000
51
180.000
0
ARC
8
100
10
29.8450
20
95.2500
39
0.2540
40
2.9464
50
180.000
51
270.000
0
ARC
8
100
10
29.8450
20
95.2500
39
0.2540
40
2.9464
50
270.000
51
0.000
0
CIRCLE
8
100
62
7
10
28.5750
20
95.2500
40
0.6350
0
POLYLINE
8
100
66
1
40
0.0508
41
0.0508
0
VERTEX
8
100
10
28.2575
20
95.2500
42
1.0
0
VERTEX
8
100
10
28.8925
20
95.2500
42
1.0
0
VERTEX
8
100
10
28.2575
20
95.2500
0
SEQEND
0
CIRCLE
8
100
62
7
10
28.5750
20
95.2500
40
0.3810
0
CIRCLE
8
100
62
7
10
31.1150
20
95.2500
40
0.6350
0
POLYLINE
8
100
66
1
40
0.0508
41
0.0508
0
VERTEX
8
100
10
30.7975
20
95.2500
42
1.0
0
VERTEX
8
100
10
31.4325
20
95.2500
42
1.0
0
VERTEX
8
100
10
30.7975
20
95.2500
0
SEQEND
0
CIRCLE
8
100
62
7
10
31.1150
20
95.2500
40
0.3810
0
POLYLINE
8
100
66
1
40
0.2540
41
0.2540
0
VERTEX
8
100
10
28.0670
20
96.7740
0
VERTEX
8
100
10
29.0830
20
96.7740
0
SEQEND
0
POLYLINE
8
100
66
1
40
0.2540
41
0.2540
0
VERTEX
8
100
10
28.5750
20
96.2660
0
VERTEX
8
100
10
28.5750
20
97.1550
0
SEQEND
0
POLYLINE
8
100
66
1
40
0.2540
41
0.2540
0
VERTEX
8
100
10
32.2580
20
93.7260
0
VERTEX
8
100
10
32.2580
20
96.9010
0
SEQEND
0
TEXT
8
100
40
1.5240
1
R12
7
standard
50
0.000
10
123.1900
20
31.6230
0
SOLID
8
100
10
117.4750
20
31.4325
11
117.4750
21
32.3215
12
119.2530
22
31.4325
13
119.2530
23
32.3215
0
CIRCLE
8
100
62
7
10
118.3640
20
31.8770
40
0.0000
0
SOLID
8
100
10
117.4750
20
29.4005
11
117.4750
21
30.2895
12
119.2530
22
29.4005
13
119.2530
23
30.2895
0
CIRCLE
8
100
62
7
10
118.3640
20
29.8450
40
0.0000
0
SOLID
8
100
10
120.2690
20
31.4325
11
120.2690
21
32.3215
12
122.0470
22
31.4325
13
122.0470
23
32.3215
0
CIRCLE
8
100
62
7
10
121.1580
20
31.8770
40
0.0000
0
SOLID
8
100
10
120.2690
20
29.4640
11
120.2690
21
30.7340
12
122.0470
22
29.4640
13
122.0470
23
30.7340
0
CIRCLE
8
100
62
7
10
121.1580
20
30.0990
40
0.0000
0
POLYLINE
8
100
66
1
40
0.2540
41
0.2540
0
VERTEX
8
100
10
117.0940
20
30.9880
0
VERTEX
8
100
10
119.7610
20
30.9880
0
SEQEND
0
POLYLINE
8
100
66
1
40
0.2540
41
0.2540
0
VERTEX
8
100
10
119.7610
20
30.9880
0
VERTEX
8
100
10
119.7610
20
32.7660
0
SEQEND
0
POLYLINE
8
100
66
1
40
0.2540
41
0.2540
0
VERTEX
8
100
10
117.0940
20
28.8290
0
VERTEX
8
100
10
122.4280
20
28.8290
0
SEQEND
0
POLYLINE
8
100
66
1
40
0.2540
41
0.2540
0
VERTEX
8
100
10
122.4280
20
28.8290
0
VERTEX
8
100
10
122.4280
20
32.7660
0
SEQEND
0
POLYLINE
8
100
66
1
40
0.2540
41
0.2540
0
VERTEX
8
100
10
117.0940
20
32.7660
0
VERTEX
8
100
10
122.4280
20
32.7660
0
SEQEND
0
POLYLINE
8
100
66
1
40
0.2540
41
0.2540
0
VERTEX
8
100
10
117.0940
20
28.9560
0
VERTEX
8
100
10
117.0940
20
32.7660
0
SEQEND
0
TEXT
8
100
40
2.5400
1
U9
7
standard
50
0.000
10
84.2010
20
26.7970
0
SOLID
8
100
10
84.0740
20
32.2580
11
84.0740
21
33.7820
12
84.8360
22
32.2580
13
84.8360
23
33.7820
0
CIRCLE
8
100
62
7
10
84.4550
20
33.0200
40
0.0000
0
SOLID
8
100
10
85.5980
20
32.2580
11
85.5980
21
33.7820
12
86.3600
22
32.2580
13
86.3600
23
33.7820
0
CIRCLE
8
100
62
7
10
85.9790
20
33.0200
40
0.0000
0
SOLID
8
100
10
87.1220
20
32.2580
11
87.1220
21
33.7820
12
87.8840
22
32.2580
13
87.8840
23
33.7820
0
CIRCLE
8
100
62
7
10
87.5030
20
33.0200
40
0.0000
0
SOLID
8
100
10
84.9630
20
36.3220
11
84.9630
21
37.8460
12
86.9950
22
36.3220
13
86.9950
23
37.8460
0
CIRCLE
8
100
62
7
10
85.9790
20
37.0840
40
0.0000
0
POLYLINE
8
100
66
1
40
0.2540
41
0.2540
0
VERTEX
8
100
10
87.2490
20
37.0840
0
VERTEX
8
100
10
88.5190
20
37.0840
0
SEQEND
0
POLYLINE
8
100
66
1
40
0.2540
41
0.2540
0
VERTEX
8
100
10
88.5190
20
33.0200
0
VERTEX
8
100
10
88.5190
20
37.0840
0
SEQEND
0
POLYLINE
8
100
66
1
40
0.2540
41
0.2540
0
VERTEX
8
100
10
88.1380
20
33.0200
0
VERTEX
8
100
10
88.5190
20
33.0200
0
SEQEND
0
POLYLINE
8
100
66
1
40
0.2540
41
0.2540
0
VERTEX
8
100
10
83.4390
20
33.0200
0
VERTEX
8
100
10
83.8200
20
33.0200
0
SEQEND
0
POLYLINE
8
100
66
1
40
0.2540
41
0.2540
0
VERTEX
8
100
10
83.4390
20
33.0200
0
VERTEX
8
100
10
83.4390
20
37.0840
0
SEQEND
0
POLYLINE
8
100
66
1
40
0.2540
41
0.2540
0
VERTEX
8
100
10
83.4390
20
37.0840
0
VERTEX
8
100
10
84.7090
20
37.0840
0
SEQEND
0
TEXT
8
100
40
1.5240
1
U8
7
standard
50
0.000
10
31.4960
20
40.5130
0
ARC
8
100
10
32.3850
20
39.2430
39
0.2540
40
0.0508
50
0.000
51
90.000
0
ARC
8
100
10
32.3850
20
39.2430
39
0.2540
40
0.0508
50
90.000
51
180.000
0
ARC
8
100
10
32.3850
20
39.2430
39
0.2540
40
0.0508
50
180.000
51
270.000
0
ARC
8
100
10
32.3850
20
39.2430
39
0.2540
40
0.0508
50
270.000
51
0.000
0
SOLID
8
100
10
33.1851
20
39.0398
11
33.1851
21
39.4462
12
34.1757
22
39.0398
13
34.1757
23
39.4462
0
CIRCLE
8
100
62
7
10
33.6804
20
39.2430
40
0.0000
0
SOLID
8
100
10
33.1851
20
38.4048
11
33.1851
21
38.8112
12
34.1757
22
38.4048
13
34.1757
23
38.8112
0
CIRCLE
8
100
62
7
10
33.6804
20
38.6080
40
0.0000
0
SOLID
8
100
10
33.1851
20
37.7190
11
33.1851
21
38.1254
12
34.1757
22
37.7190
13
34.1757
23
38.1254
0
CIRCLE
8
100
62
7
10
33.6804
20
37.9222
40
0.0000
0
SOLID
8
100
10
31.0007
20
39.0398
11
31.0007
21
39.4462
12
31.9913
22
39.0398
13
31.9913
23
39.4462
0
CIRCLE
8
100
62
7
10
31.4960
20
39.2430
40
0.0000
0
SOLID
8
100
10
31.0007
20
37.7190
11
31.0007
21
38.1254
12
31.9913
22
37.7190
13
31.9913
23
38.1254
0
CIRCLE
8
100
62
7
10
31.4960
20
37.9222
40
0.0000
0
SOLID
8
100
10
31.0007
20
38.4048
11
31.0007
21
38.8112
12
31.9913
22
38.4048
13
31.9913
23
38.8112
0
CIRCLE
8
100
62
7
10
31.4960
20
38.6080
40
0.0000
0
POLYLINE
8
100
66
1
40
0.1778
41
0.1778
0
VERTEX
8
100
10
32.0802
20
37.5920
0
VERTEX
8
100
10
32.0802
20
39.5986
0
SEQEND
0
POLYLINE
8
100
66
1
40
0.1778
41
0.1778
0
VERTEX
8
100
10
32.0802
20
37.5920
0
VERTEX
8
100
10
33.0962
20
37.5920
0
SEQEND
0
POLYLINE
8
100
66
1
40
0.1778
41
0.1778
0
VERTEX
8
100
10
33.0962
20
37.5920
0
VERTEX
8
100
10
33.0962
20
39.5986
0
SEQEND
0
POLYLINE
8
100
66
1
40
0.1778
41
0.1778
0
VERTEX
8
100
10
32.0802
20
39.5986
0
VERTEX
8
100
10
33.0962
20
39.5986
0
SEQEND
0
TEXT
8
100
40
1.5240
1
C6
7
standard
50
0.000
10
57.6580
20
88.6460
0
SOLID
8
100
10
59.4868
20
86.8299
11
59.4868
21
87.9221
12
60.5028
22
86.8299
13
60.5028
23
87.9221
0
CIRCLE
8
100
62
7
10
59.9948
20
87.3760
40
0.0000
0
SOLID
8
100
10
57.1500
20
86.8299
11
57.1500
21
87.9221
12
58.1660
22
86.8299
13
58.1660
23
87.9221
0
CIRCLE
8
100
62
7
10
57.6580
20
87.3760
40
0.0000
0
POLYLINE
8
100
66
1
40
0.1778
41
0.1778
0
VERTEX
8
100
10
57.0230
20
86.6648
0
VERTEX
8
100
10
57.0230
20
88.0872
0
SEQEND
0
POLYLINE
8
100
66
1
40
0.1778
41
0.1778
0
VERTEX
8
100
10
57.0230
20
86.6648
0
VERTEX
8
100
10
60.6298
20
86.6648
0
SEQEND
0
POLYLINE
8
100
66
1
40
0.1778
41
0.1778
0
VERTEX
8
100
10
60.6298
20
86.6648
0
VERTEX
8
100
10
60.6298
20
88.0872
0
SEQEND
0
POLYLINE
8
100
66
1
40
0.1778
41
0.1778
0
VERTEX
8
100
10
57.0230
20
88.0872
0
VERTEX
8
100
10
60.6298
20
88.0872
0
SEQEND
0
TEXT
8
100
40
1.5240
1
R4
7
standard
50
0.000
10
34.2900
20
105.7910
0
SOLID
8
100
10
36.7538
20
103.5939
11
36.7538
21
104.6861
12
37.7698
22
103.5939
13
37.7698
23
104.6861
0
CIRCLE
8
100
62
7
10
37.2618
20
104.1400
40
0.0000
0
SOLID
8
100
10
34.4170
20
103.5939
11
34.4170
21
104.6861
12
35.4330
22
103.5939
13
35.4330
23
104.6861
0
CIRCLE
8
100
62
7
10
34.9250
20
104.1400
40
0.0000
0
POLYLINE
8
100
66
1
40
0.1778
41
0.1778
0
VERTEX
8
100
10
34.2900
20
104.8512
0
VERTEX
8
100
10
37.8968
20
104.8512
0
SEQEND
0
POLYLINE
8
100
66
1
40
0.1778
41
0.1778
0
VERTEX
8
100
10
37.8968
20
103.4288
0
VERTEX
8
100
10
37.8968
20
104.8512
0
SEQEND
0
POLYLINE
8
100
66
1
40
0.1778
41
0.1778
0
VERTEX
8
100
10
34.2900
20
103.4288
0
VERTEX
8
100
10
37.8968
20
103.4288
0
SEQEND
0
POLYLINE
8
100
66
1
40
0.1778
41
0.1778
0
VERTEX
8
100
10
34.2900
20
103.4288
0
VERTEX
8
100
10
34.2900
20
104.8512
0
SEQEND
0
TEXT
8
100
40
1.5240
1
R3
7
standard
50
0.000
10
34.2900
20
114.6810
0
SOLID
8
100
10
36.7538
20
112.4839
11
36.7538
21
113.5761
12
37.7698
22
112.4839
13
37.7698
23
113.5761
0
CIRCLE
8
100
62
7
10
37.2618
20
113.0300
40
0.0000
0
SOLID
8
100
10
34.4170
20
112.4839
11
34.4170
21
113.5761
12
35.4330
22
112.4839
13
35.4330
23
113.5761
0
CIRCLE
8
100
62
7
10
34.9250
20
113.0300
40
0.0000
0
POLYLINE
8
100
66
1
40
0.1778
41
0.1778
0
VERTEX
8
100
10
34.2900
20
113.7412
0
VERTEX
8
100
10
37.8968
20
113.7412
0
SEQEND
0
POLYLINE
8
100
66
1
40
0.1778
41
0.1778
0
VERTEX
8
100
10
37.8968
20
112.3188
0
VERTEX
8
100
10
37.8968
20
113.7412
0
SEQEND
0
POLYLINE
8
100
66
1
40
0.1778
41
0.1778
0
VERTEX
8
100
10
34.2900
20
112.3188
0
VERTEX
8
100
10
37.8968
20
112.3188
0
SEQEND
0
POLYLINE
8
100
66
1
40
0.1778
41
0.1778
0
VERTEX
8
100
10
34.2900
20
112.3188
0
VERTEX
8
100
10
34.2900
20
113.7412
0
SEQEND
0
TEXT
8
100
40
1.5240
1
R2
7
standard
50
0.000
10
34.2900
20
123.5710
0
SOLID
8
100
10
36.7538
20
121.3739
11
36.7538
21
122.4661
12
37.7698
22
121.3739
13
37.7698
23
122.4661
0
CIRCLE
8
100
62
7
10
37.2618
20
121.9200
40
0.0000
0
SOLID
8
100
10
34.4170
20
121.3739
11
34.4170
21
122.4661
12
35.4330
22
121.3739
13
35.4330
23
122.4661
0
CIRCLE
8
100
62
7
10
34.9250
20
121.9200
40
0.0000
0
POLYLINE
8
100
66
1
40
0.1778
41
0.1778
0
VERTEX
8
100
10
34.2900
20
122.6312
0
VERTEX
8
100
10
37.8968
20
122.6312
0
SEQEND
0
POLYLINE
8
100
66
1
40
0.1778
41
0.1778
0
VERTEX
8
100
10
37.8968
20
121.2088
0
VERTEX
8
100
10
37.8968
20
122.6312
0
SEQEND
0
POLYLINE
8
100
66
1
40
0.1778
41
0.1778
0
VERTEX
8
100
10
34.2900
20
121.2088
0
VERTEX
8
100
10
37.8968
20
121.2088
0
SEQEND
0
POLYLINE
8
100
66
1
40
0.1778
41
0.1778
0
VERTEX
8
100
10
34.2900
20
121.2088
0
VERTEX
8
100
10
34.2900
20
122.6312
0
SEQEND
0
TEXT
8
100
40
1.5240
1
U6
7
standard
50
0.000
10
66.0400
20
119.3800
0
SOLID
8
100
10
60.3250
20
110.4392
11
60.3250
21
111.7092
12
64.1350
22
110.4392
13
64.1350
23
111.7092
0
CIRCLE
8
100
62
7
10
62.2300
20
111.0742
40
0.0000
0
SOLID
8
100
10
60.3250
20
115.5700
11
60.3250
21
116.8400
12
64.1350
22
115.5700
13
64.1350
23
116.8400
0
CIRCLE
8
100
62
7
10
62.2300
20
116.2050
40
0.0000
0
SOLID
8
100
10
70.3326
20
115.5700
11
70.3326
21
116.8400
12
74.1426
22
115.5700
13
74.1426
23
116.8400
0
CIRCLE
8
100
62
7
10
72.2376
20
116.2050
40
0.0000
0
SOLID
8
100
10
70.3326
20
110.4392
11
70.3326
21
111.7092
12
74.1426
22
110.4392
13
74.1426
23
111.7092
0
CIRCLE
8
100
62
7
10
72.2376
20
111.0742
40
0.0000
0
POLYLINE
8
100
66
1
40
0.5080
41
0.5080
0
VERTEX
8
100
10
64.2366
20
117.1956
0
VERTEX
8
100
10
70.2310
20
117.1956
0
SEQEND
0
POLYLINE
8
100
66
1
40
0.5080
41
0.5080
0
VERTEX
8
100
10
64.2366
20
109.7026
0
VERTEX
8
100
10
70.2310
20
109.7026
0
SEQEND
0
POLYLINE
8
100
66
1
40
0.5080
41
0.5080
0
VERTEX
8
100
10
64.2366
20
109.7026
0
VERTEX
8
100
10
64.2366
20
118.2116
0
SEQEND
0
POLYLINE
8
100
66
1
40
0.5080
41
0.5080
0
VERTEX
8
100
10
64.2366
20
118.2116
0
VERTEX
8
100
10
70.2310
20
118.2116
0
SEQEND
0
POLYLINE
8
100
66
1
40
0.5080
41
0.5080
0
VERTEX
8
100
10
70.2310
20
109.7026
0
VERTEX
8
100
10
70.2310
20
118.2116
0
SEQEND
0
TEXT
8
100
40
1.5240
1
Q3
7
standard
50
0.000
10
84.4550
20
112.3950
0
SOLID
8
100
10
90.6780
20
111.1250
11
90.6780
21
112.3950
12
91.6940
22
111.1250
13
91.6940
23
112.3950
0
CIRCLE
8
100
62
7
10
91.1860
20
111.7600
40
0.0000
0
SOLID
8
100
10
88.6460
20
111.1250
11
88.6460
21
112.3950
12
89.6620
22
111.1250
13
89.6620
23
112.3950
0
CIRCLE
8
100
62
7
10
89.1540
20
111.7600
40
0.0000
0
SOLID
8
100
10
89.6620
20
113.6650
11
89.6620
21
114.9350
12
90.6780
22
113.6650
13
90.6780
23
114.9350
0
CIRCLE
8
100
62
7
10
90.1700
20
114.3000
40
0.0000
0
POLYLINE
8
100
66
1
40
0.2032
41
0.2032
0
VERTEX
8
100
10
91.4400
20
112.7760
0
VERTEX
8
100
10
91.4400
20
114.3000
0
SEQEND
0
POLYLINE
8
100
66
1
40
0.2032
41
0.2032
0
VERTEX
8
100
10
90.9320
20
114.3000
0
VERTEX
8
100
10
91.4400
20
114.3000
0
SEQEND
0
POLYLINE
8
100
66
1
40
0.2032
41
0.2032
0
VERTEX
8
100
10
88.9000
20
114.3000
0
VERTEX
8
100
10
89.4080
20
114.3000
0
SEQEND
0
POLYLINE
8
100
66
1
40
0.2032
41
0.2032
0
VERTEX
8
100
10
88.9000
20
112.7760
0
VERTEX
8
100
10
88.9000
20
114.3000
0
SEQEND
0
TEXT
8
100
40
1.5240
1
Q2
7
standard
50
0.000
10
84.4550
20
118.1100
0
SOLID
8
100
10
90.6780
20
116.8400
11
90.6780
21
118.1100
12
91.6940
22
116.8400
13
91.6940
23
118.1100
0
CIRCLE
8
100
62
7
10
91.1860
20
117.4750
40
0.0000
0
SOLID
8
100
10
88.6460
20
116.8400
11
88.6460
21
118.1100
12
89.6620
22
116.8400
13
89.6620
23
118.1100
0
CIRCLE
8
100
62
7
10
89.1540
20
117.4750
40
0.0000
0
SOLID
8
100
10
89.6620
20
119.3800
11
89.6620
21
120.6500
12
90.6780
22
119.3800
13
90.6780
23
120.6500
0
CIRCLE
8
100
62
7
10
90.1700
20
120.0150
40
0.0000
0
POLYLINE
8
100
66
1
40
0.2032
41
0.2032
0
VERTEX
8
100
10
91.4400
20
118.4910
0
VERTEX
8
100
10
91.4400
20
120.0150
0
SEQEND
0
POLYLINE
8
100
66
1
40
0.2032
41
0.2032
0
VERTEX
8
100
10
90.9320
20
120.0150
0
VERTEX
8
100
10
91.4400
20
120.0150
0
SEQEND
0
POLYLINE
8
100
66
1
40
0.2032
41
0.2032
0
VERTEX
8
100
10
88.9000
20
120.0150
0
VERTEX
8
100
10
89.4080
20
120.0150
0
SEQEND
0
POLYLINE
8
100
66
1
40
0.2032
41
0.2032
0
VERTEX
8
100
10
88.9000
20
118.4910
0
VERTEX
8
100
10
88.9000
20
120.0150
0
SEQEND
0
TEXT
8
100
40
1.5240
1
Q1
7
standard
50
0.000
10
85.9790
20
102.3620
0
SOLID
8
100
10
90.6780
20
102.2350
11
90.6780
21
103.5050
12
91.6940
22
102.2350
13
91.6940
23
103.5050
0
CIRCLE
8
100
62
7
10
91.1860
20
102.8700
40
0.0000
0
SOLID
8
100
10
88.6460
20
102.2350
11
88.6460
21
103.5050
12
89.6620
22
102.2350
13
89.6620
23
103.5050
0
CIRCLE
8
100
62
7
10
89.1540
20
102.8700
40
0.0000
0
SOLID
8
100
10
89.6620
20
104.7750
11
89.6620
21
106.0450
12
90.6780
22
104.7750
13
90.6780
23
106.0450
0
CIRCLE
8
100
62
7
10
90.1700
20
105.4100
40
0.0000
0
POLYLINE
8
100
66
1
40
0.2032
41
0.2032
0
VERTEX
8
100
10
91.4400
20
103.8860
0
VERTEX
8
100
10
91.4400
20
105.4100
0
SEQEND
0
POLYLINE
8
100
66
1
40
0.2032
41
0.2032
0
VERTEX
8
100
10
90.9320
20
105.4100
0
VERTEX
8
100
10
91.4400
20
105.4100
0
SEQEND
0
POLYLINE
8
100
66
1
40
0.2032
41
0.2032
0
VERTEX
8
100
10
88.9000
20
105.4100
0
VERTEX
8
100
10
89.4080
20
105.4100
0
SEQEND
0
POLYLINE
8
100
66
1
40
0.2032
41
0.2032
0
VERTEX
8
100
10
88.9000
20
103.8860
0
VERTEX
8
100
10
88.9000
20
105.4100
0
SEQEND
0
TEXT
8
100
40
1.5240
1
R6
7
standard
50
0.000
10
84.3280
20
121.6660
0
SOLID
8
100
10
90.7288
20
122.0089
11
90.7288
21
123.1011
12
91.7448
22
122.0089
13
91.7448
23
123.1011
0
CIRCLE
8
100
62
7
10
91.2368
20
122.5550
40
0.0000
0
SOLID
8
100
10
88.3920
20
122.0089
11
88.3920
21
123.1011
12
89.4080
22
122.0089
13
89.4080
23
123.1011
0
CIRCLE
8
100
62
7
10
88.9000
20
122.5550
40
0.0000
0
POLYLINE
8
100
66
1
40
0.1778
41
0.1778
0
VERTEX
8
100
10
88.2650
20
123.2662
0
VERTEX
8
100
10
91.8718
20
123.2662
0
SEQEND
0
POLYLINE
8
100
66
1
40
0.1778
41
0.1778
0
VERTEX
8
100
10
91.8718
20
121.8438
0
VERTEX
8
100
10
91.8718
20
123.2662
0
SEQEND
0
POLYLINE
8
100
66
1
40
0.1778
41
0.1778
0
VERTEX
8
100
10
88.2650
20
121.8438
0
VERTEX
8
100
10
91.8718
20
121.8438
0
SEQEND
0
POLYLINE
8
100
66
1
40
0.1778
41
0.1778
0
VERTEX
8
100
10
88.2650
20
121.8438
0
VERTEX
8
100
10
88.2650
20
123.2662
0
SEQEND
0
TEXT
8
100
40
1.5240
1
C5
7
standard
50
0.000
10
72.3900
20
122.5550
0
SOLID
8
100
10
74.2188
20
120.7389
11
74.2188
21
121.8311
12
75.2348
22
120.7389
13
75.2348
23
121.8311
0
CIRCLE
8
100
62
7
10
74.7268
20
121.2850
40
0.0000
0
SOLID
8
100
10
71.8820
20
120.7389
11
71.8820
21
121.8311
12
72.8980
22
120.7389
13
72.8980
23
121.8311
0
CIRCLE
8
100
62
7
10
72.3900
20
121.2850
40
0.0000
0
POLYLINE
8
100
66
1
40
0.1778
41
0.1778
0
VERTEX
8
100
10
71.7550
20
121.9962
0
VERTEX
8
100
10
75.3618
20
121.9962
0
SEQEND
0
POLYLINE
8
100
66
1
40
0.1778
41
0.1778
0
VERTEX
8
100
10
75.3618
20
120.5738
0
VERTEX
8
100
10
75.3618
20
121.9962
0
SEQEND
0
POLYLINE
8
100
66
1
40
0.1778
41
0.1778
0
VERTEX
8
100
10
71.7550
20
120.5738
0
VERTEX
8
100
10
75.3618
20
120.5738
0
SEQEND
0
POLYLINE
8
100
66
1
40
0.1778
41
0.1778
0
VERTEX
8
100
10
71.7550
20
120.5738
0
VERTEX
8
100
10
71.7550
20
121.9962
0
SEQEND
0
TEXT
8
100
40
1.5240
1
C4
7
standard
50
0.000
10
72.3900
20
107.9500
0
SOLID
8
100
10
74.2188
20
106.1339
11
74.2188
21
107.2261
12
75.2348
22
106.1339
13
75.2348
23
107.2261
0
CIRCLE
8
100
62
7
10
74.7268
20
106.6800
40
0.0000
0
SOLID
8
100
10
71.8820
20
106.1339
11
71.8820
21
107.2261
12
72.8980
22
106.1339
13
72.8980
23
107.2261
0
CIRCLE
8
100
62
7
10
72.3900
20
106.6800
40
0.0000
0
POLYLINE
8
100
66
1
40
0.1778
41
0.1778
0
VERTEX
8
100
10
71.7550
20
107.3912
0
VERTEX
8
100
10
75.3618
20
107.3912
0
SEQEND
0
POLYLINE
8
100
66
1
40
0.1778
41
0.1778
0
VERTEX
8
100
10
75.3618
20
105.9688
0
VERTEX
8
100
10
75.3618
20
107.3912
0
SEQEND
0
POLYLINE
8
100
66
1
40
0.1778
41
0.1778
0
VERTEX
8
100
10
71.7550
20
105.9688
0
VERTEX
8
100
10
75.3618
20
105.9688
0
SEQEND
0
POLYLINE
8
100
66
1
40
0.1778
41
0.1778
0
VERTEX
8
100
10
71.7550
20
105.9688
0
VERTEX
8
100
10
71.7550
20
107.3912
0
SEQEND
0
TEXT
8
100
40
1.5240
1
C3
7
standard
50
0.000
10
84.4550
20
107.9500
0
SOLID
8
100
10
90.7288
20
108.0389
11
90.7288
21
109.1311
12
91.7448
22
108.0389
13
91.7448
23
109.1311
0
CIRCLE
8
100
62
7
10
91.2368
20
108.5850
40
0.0000
0
SOLID
8
100
10
88.3920
20
108.0389
11
88.3920
21
109.1311
12
89.4080
22
108.0389
13
89.4080
23
109.1311
0
CIRCLE
8
100
62
7
10
88.9000
20
108.5850
40
0.0000
0
POLYLINE
8
100
66
1
40
0.1778
41
0.1778
0
VERTEX
8
100
10
88.2650
20
109.2962
0
VERTEX
8
100
10
91.8718
20
109.2962
0
SEQEND
0
POLYLINE
8
100
66
1
40
0.1778
41
0.1778
0
VERTEX
8
100
10
91.8718
20
107.8738
0
VERTEX
8
100
10
91.8718
20
109.2962
0
SEQEND
0
POLYLINE
8
100
66
1
40
0.1778
41
0.1778
0
VERTEX
8
100
10
88.2650
20
107.8738
0
VERTEX
8
100
10
91.8718
20
107.8738
0
SEQEND
0
POLYLINE
8
100
66
1
40
0.1778
41
0.1778
0
VERTEX
8
100
10
88.2650
20
107.8738
0
VERTEX
8
100
10
88.2650
20
109.2962
0
SEQEND
0
TEXT
8
100
40
1.5240
1
C2
7
standard
50
0.000
10
30.4800
20
88.6460
0
SOLID
8
100
10
32.3088
20
86.8299
11
32.3088
21
87.9221
12
33.3248
22
86.8299
13
33.3248
23
87.9221
0
CIRCLE
8
100
62
7
10
32.8168
20
87.3760
40
0.0000
0
SOLID
8
100
10
29.9720
20
86.8299
11
29.9720
21
87.9221
12
30.9880
22
86.8299
13
30.9880
23
87.9221
0
CIRCLE
8
100
62
7
10
30.4800
20
87.3760
40
0.0000
0
POLYLINE
8
100
66
1
40
0.1778
41
0.1778
0
VERTEX
8
100
10
29.8450
20
86.6648
0
VERTEX
8
100
10
29.8450
20
88.0872
0
SEQEND
0
POLYLINE
8
100
66
1
40
0.1778
41
0.1778
0
VERTEX
8
100
10
29.8450
20
86.6648
0
VERTEX
8
100
10
33.4518
20
86.6648
0
SEQEND
0
POLYLINE
8
100
66
1
40
0.1778
41
0.1778
0
VERTEX
8
100
10
33.4518
20
86.6648
0
VERTEX
8
100
10
33.4518
20
88.0872
0
SEQEND
0
POLYLINE
8
100
66
1
40
0.1778
41
0.1778
0
VERTEX
8
100
10
29.8450
20
88.0872
0
VERTEX
8
100
10
33.4518
20
88.0872
0
SEQEND
0
TEXT
8
100
40
1.5240
1
C1
7
standard
50
0.000
10
25.7810
20
74.8030
0
SOLID
8
100
10
27.2288
20
77.1779
11
27.2288
21
78.2701
12
28.2448
22
77.1779
13
28.2448
23
78.2701
0
CIRCLE
8
100
62
7
10
27.7368
20
77.7240
40
0.0000
0
SOLID
8
100
10
24.8920
20
77.1779
11
24.8920
21
78.2701
12
25.9080
22
77.1779
13
25.9080
23
78.2701
0
CIRCLE
8
100
62
7
10
25.4000
20
77.7240
40
0.0000
0
POLYLINE
8
100
66
1
40
0.1778
41
0.1778
0
VERTEX
8
100
10
24.7650
20
77.0128
0
VERTEX
8
100
10
24.7650
20
78.4352
0
SEQEND
0
POLYLINE
8
100
66
1
40
0.1778
41
0.1778
0
VERTEX
8
100
10
24.7650
20
77.0128
0
VERTEX
8
100
10
28.3718
20
77.0128
0
SEQEND
0
POLYLINE
8
100
66
1
40
0.1778
41
0.1778
0
VERTEX
8
100
10
28.3718
20
77.0128
0
VERTEX
8
100
10
28.3718
20
78.4352
0
SEQEND
0
POLYLINE
8
100
66
1
40
0.1778
41
0.1778
0
VERTEX
8
100
10
24.7650
20
78.4352
0
VERTEX
8
100
10
28.3718
20
78.4352
0
SEQEND
0
TEXT
8
100
40
1.5240
1
R1
7
standard
50
0.000
10
21.5900
20
57.7850
0
SOLID
8
100
10
23.4188
20
55.9689
11
23.4188
21
57.0611
12
24.4348
22
55.9689
13
24.4348
23
57.0611
0
CIRCLE
8
100
62
7
10
23.9268
20
56.5150
40
0.0000
0
SOLID
8
100
10
21.0820
20
55.9689
11
21.0820
21
57.0611
12
22.0980
22
55.9689
13
22.0980
23
57.0611
0
CIRCLE
8
100
62
7
10
21.5900
20
56.5150
40
0.0000
0
POLYLINE
8
100
66
1
40
0.1778
41
0.1778
0
VERTEX
8
100
10
20.9550
20
55.8038
0
VERTEX
8
100
10
20.9550
20
57.2262
0
SEQEND
0
POLYLINE
8
100
66
1
40
0.1778
41
0.1778
0
VERTEX
8
100
10
20.9550
20
55.8038
0
VERTEX
8
100
10
24.5618
20
55.8038
0
SEQEND
0
POLYLINE
8
100
66
1
40
0.1778
41
0.1778
0
VERTEX
8
100
10
24.5618
20
55.8038
0
VERTEX
8
100
10
24.5618
20
57.2262
0
SEQEND
0
POLYLINE
8
100
66
1
40
0.1778
41
0.1778
0
VERTEX
8
100
10
20.9550
20
57.2262
0
VERTEX
8
100
10
24.5618
20
57.2262
0
SEQEND
0
TEXT
8
100
40
1.5240
1
U4
7
standard
50
0.000
10
25.2730
20
80.7720
0
ARC
8
100
10
26.2636
20
85.4456
39
0.2540
40
0.1016
50
0.000
51
90.000
0
ARC
8
100
10
26.2636
20
85.4456
39
0.2540
40
0.1016
50
90.000
51
180.000
0
ARC
8
100
10
26.2636
20
85.4456
39
0.2540
40
0.1016
50
180.000
51
270.000
0
ARC
8
100
10
26.2636
20
85.4456
39
0.2540
40
0.1016
50
270.000
51
0.000
0
SOLID
8
100
10
25.1333
20
85.2170
11
25.1333
21
85.7250
12
25.4127
22
85.2170
13
25.4127
23
85.7250
0
POLYLINE
8
100
66
1
40
0.0254
41
0.0254
0
VERTEX
8
100
10
25.0063
20
85.4710
42
1.0
0
VERTEX
8
100
10
25.2603
20
85.4710
42
1.0
0
VERTEX
8
100
10
25.0063
20
85.4710
0
SEQEND
0
POLYLINE
8
100
66
1
40
0.0254
41
0.0254
0
VERTEX
8
100
10
25.2857
20
85.4710
42
1.0
0
VERTEX
8
100
10
25.5397
20
85.4710
42
1.0
0
VERTEX
8
100
10
25.2857
20
85.4710
0
SEQEND
0
CIRCLE
8
100
62
7
10
25.2730
20
85.4710
40
0.0000
0
SOLID
8
100
10
24.8793
20
84.2772
11
24.8793
21
84.7852
12
25.6667
22
84.2772
13
25.6667
23
84.7852
0
CIRCLE
8
100
62
7
10
25.2730
20
84.5312
40
0.0000
0
SOLID
8
100
10
24.8793
20
83.3628
11
24.8793
21
83.8708
12
25.6667
22
83.3628
13
25.6667
23
83.8708
0
CIRCLE
8
100
62
7
10
25.2730
20
83.6168
40
0.0000
0
SOLID
8
100
10
27.4447
20
83.3628
11
27.4447
21
83.8708
12
28.2321
22
83.3628
13
28.2321
23
83.8708
0
CIRCLE
8
100
62
7
10
27.8384
20
83.6168
40
0.0000
0
SOLID
8
100
10
27.4447
20
84.2772
11
27.4447
21
84.7852
12
28.2321
22
84.2772
13
28.2321
23
84.7852
0
CIRCLE
8
100
62
7
10
27.8384
20
84.5312
40
0.0000
0
SOLID
8
100
10
27.4447
20
85.2170
11
27.4447
21
85.7250
12
28.2321
22
85.2170
13
28.2321
23
85.7250
0
CIRCLE
8
100
62
7
10
27.8384
20
85.4710
40
0.0000
0
POLYLINE
8
100
66
1
40
0.2540
41
0.2540
0
VERTEX
8
100
10
25.8572
20
83.0834
0
VERTEX
8
100
10
25.8572
20
86.0806
0
SEQEND
0
POLYLINE
8
100
66
1
40
0.2540
41
0.2540
0
VERTEX
8
100
10
27.2542
20
83.0834
0
VERTEX
8
100
10
27.2542
20
86.0806
0
SEQEND
0
POLYLINE
8
100
66
1
40
0.2540
41
0.2540
0
VERTEX
8
100
10
25.8572
20
83.0834
0
VERTEX
8
100
10
27.2542
20
83.0834
0
SEQEND
0
POLYLINE
8
100
66
1
40
0.2540
41
0.2540
0
VERTEX
8
100
10
25.8572
20
86.0806
0
VERTEX
8
100
10
27.2542
20
86.0806
0
SEQEND
0
TEXT
8
100
40
1.5240
1
U3
7
standard
50
0.000
10
38.8620
20
64.6430
0
ARC
8
100
10
39.7510
20
63.3730
39
0.2540
40
0.0508
50
0.000
51
90.000
0
ARC
8
100
10
39.7510
20
63.3730
39
0.2540
40
0.0508
50
90.000
51
180.000
0
ARC
8
100
10
39.7510
20
63.3730
39
0.2540
40
0.0508
50
180.000
51
270.000
0
ARC
8
100
10
39.7510
20
63.3730
39
0.2540
40
0.0508
50
270.000
51
0.000
0
SOLID
8
100
10
40.5511
20
63.1698
11
40.5511
21
63.5762
12
41.5417
22
63.1698
13
41.5417
23
63.5762
0
CIRCLE
8
100
62
7
10
41.0464
20
63.3730
40
0.0000
0
SOLID
8
100
10
40.5511
20
62.5348
11
40.5511
21
62.9412
12
41.5417
22
62.5348
13
41.5417
23
62.9412
0
CIRCLE
8
100
62
7
10
41.0464
20
62.7380
40
0.0000
0
SOLID
8
100
10
40.5511
20
61.8490
11
40.5511
21
62.2554
12
41.5417
22
61.8490
13
41.5417
23
62.2554
0
CIRCLE
8
100
62
7
10
41.0464
20
62.0522
40
0.0000
0
SOLID
8
100
10
38.3667
20
63.1698
11
38.3667
21
63.5762
12
39.3573
22
63.1698
13
39.3573
23
63.5762
0
CIRCLE
8
100
62
7
10
38.8620
20
63.3730
40
0.0000
0
SOLID
8
100
10
38.3667
20
61.8490
11
38.3667
21
62.2554
12
39.3573
22
61.8490
13
39.3573
23
62.2554
0
CIRCLE
8
100
62
7
10
38.8620
20
62.0522
40
0.0000
0
SOLID
8
100
10
38.3667
20
62.5348
11
38.3667
21
62.9412
12
39.3573
22
62.5348
13
39.3573
23
62.9412
0
CIRCLE
8
100
62
7
10
38.8620
20
62.7380
40
0.0000
0
POLYLINE
8
100
66
1
40
0.1778
41
0.1778
0
VERTEX
8
100
10
39.4462
20
63.7286
0
VERTEX
8
100
10
40.4622
20
63.7286
0
SEQEND
0
POLYLINE
8
100
66
1
40
0.1778
41
0.1778
0
VERTEX
8
100
10
40.4622
20
61.7220
0
VERTEX
8
100
10
40.4622
20
63.7286
0
SEQEND
0
POLYLINE
8
100
66
1
40
0.1778
41
0.1778
0
VERTEX
8
100
10
39.4462
20
61.7220
0
VERTEX
8
100
10
40.4622
20
61.7220
0
SEQEND
0
POLYLINE
8
100
66
1
40
0.1778
41
0.1778
0
VERTEX
8
100
10
39.4462
20
61.7220
0
VERTEX
8
100
10
39.4462
20
63.7286
0
SEQEND
0
TEXT
8
100
40
1.5240
1
U2
7
standard
50
0.000
10
29.0830
20
58.2930
0
ARC
8
100
10
29.9720
20
57.2770
39
0.2540
40
0.0508
50
0.000
51
90.000
0
ARC
8
100
10
29.9720
20
57.2770
39
0.2540
40
0.0508
50
90.000
51
180.000
0
ARC
8
100
10
29.9720
20
57.2770
39
0.2540
40
0.0508
50
180.000
51
270.000
0
ARC
8
100
10
29.9720
20
57.2770
39
0.2540
40
0.0508
50
270.000
51
0.000
0
SOLID
8
100
10
30.7721
20
57.0738
11
30.7721
21
57.4802
12
31.7627
22
57.0738
13
31.7627
23
57.4802
0
CIRCLE
8
100
62
7
10
31.2674
20
57.2770
40
0.0000
0
SOLID
8
100
10
30.7721
20
56.4388
11
30.7721
21
56.8452
12
31.7627
22
56.4388
13
31.7627
23
56.8452
0
CIRCLE
8
100
62
7
10
31.2674
20
56.6420
40
0.0000
0
SOLID
8
100
10
30.7721
20
55.7530
11
30.7721
21
56.1594
12
31.7627
22
55.7530
13
31.7627
23
56.1594
0
CIRCLE
8
100
62
7
10
31.2674
20
55.9562
40
0.0000
0
SOLID
8
100
10
28.5877
20
57.0738
11
28.5877
21
57.4802
12
29.5783
22
57.0738
13
29.5783
23
57.4802
0
CIRCLE
8
100
62
7
10
29.0830
20
57.2770
40
0.0000
0
SOLID
8
100
10
28.5877
20
55.7530
11
28.5877
21
56.1594
12
29.5783
22
55.7530
13
29.5783
23
56.1594
0
CIRCLE
8
100
62
7
10
29.0830
20
55.9562
40
0.0000
0
SOLID
8
100
10
28.5877
20
56.4388
11
28.5877
21
56.8452
12
29.5783
22
56.4388
13
29.5783
23
56.8452
0
CIRCLE
8
100
62
7
10
29.0830
20
56.6420
40
0.0000
0
POLYLINE
8
100
66
1
40
0.1778
41
0.1778
0
VERTEX
8
100
10
29.6672
20
55.6260
0
VERTEX
8
100
10
29.6672
20
57.6326
0
SEQEND
0
POLYLINE
8
100
66
1
40
0.1778
41
0.1778
0
VERTEX
8
100
10
29.6672
20
55.6260
0
VERTEX
8
100
10
30.6832
20
55.6260
0
SEQEND
0
POLYLINE
8
100
66
1
40
0.1778
41
0.1778
0
VERTEX
8
100
10
30.6832
20
55.6260
0
VERTEX
8
100
10
30.6832
20
57.6326
0
SEQEND
0
POLYLINE
8
100
66
1
40
0.1778
41
0.1778
0
VERTEX
8
100
10
29.6672
20
57.6326
0
VERTEX
8
100
10
30.6832
20
57.6326
0
SEQEND
0
TEXT
8
100
40
1.5240
1
J2
7
standard
50
0.000
10
8.8900
20
92.7100
71
2
0
CIRCLE
8
100
62
7
10
11.6840
20
86.3600
40
2.0320
0
POLYLINE
8
100
66
1
40
0.0762
41
0.0762
0
VERTEX
8
100
10
10.6680
20
86.3600
42
1.0
0
VERTEX
8
100
10
12.7000
20
86.3600
42
1.0
0
VERTEX
8
100
10
10.6680
20
86.3600
0
SEQEND
0
CIRCLE
8
100
62
7
10
11.6840
20
86.3600
40
1.5240
0
CIRCLE
8
100
62
7
10
14.8590
20
91.1860
40
2.0320
0
POLYLINE
8
100
66
1
40
0.0762
41
0.0762
0
VERTEX
8
100
10
13.8430
20
91.1860
42
1.0
0
VERTEX
8
100
10
15.8750
20
91.1860
42
1.0
0
VERTEX
8
100
10
13.8430
20
91.1860
0
SEQEND
0
CIRCLE
8
100
62
7
10
14.8590
20
91.1860
40
1.5240
0
SOLID
8
100
10
15.7480
20
84.3280
11
15.7480
21
88.3920
12
19.8120
22
84.3280
13
19.8120
23
88.3920
0
CIRCLE
8
100
62
7
10
17.7800
20
86.3600
40
1.7780
0
POLYLINE
8
100
66
1
40
0.5080
41
0.5080
0
VERTEX
8
100
10
17.7800
20
91.4400
0
VERTEX
8
100
10
19.3040
20
91.4400
0
SEQEND
0
POLYLINE
8
100
66
1
40
0.5080
41
0.5080
0
VERTEX
8
100
10
19.3040
20
88.6460
0
VERTEX
8
100
10
19.3040
20
91.4400
0
SEQEND
0
POLYLINE
8
100
66
1
40
0.5080
41
0.5080
0
VERTEX
8
100
10
19.3040
20
81.2800
0
VERTEX
8
100
10
19.3040
20
83.8200
0
SEQEND
0
POLYLINE
8
100
66
1
40
0.5080
41
0.5080
0
VERTEX
8
100
10
4.0640
20
81.2800
0
VERTEX
8
100
10
19.3040
20
81.2800
0
SEQEND
0
POLYLINE
8
100
66
1
40
0.5080
41
0.5080
0
VERTEX
8
100
10
4.0640
20
81.2800
0
VERTEX
8
100
10
4.0640
20
91.4400
0
SEQEND
0
POLYLINE
8
100
66
1
40
0.5080
41
0.5080
0
VERTEX
8
100
10
4.0640
20
91.4400
0
VERTEX
8
100
10
12.5730
20
91.4400
0
SEQEND
0
TEXT
8
100
40
1.5240
1
J3
7
standard
50
0.000
10
62.2300
20
80.7720
0
ARC
8
100
10
68.5800
20
68.5800
39
0.5080
40
1.2700
50
180.000
51
270.000
0
ARC
8
100
10
83.8200
20
68.5800
39
0.5080
40
1.2700
50
270.000
51
0.000
0
ARC
8
100
10
83.8200
20
83.8200
39
0.5080
40
1.2700
50
0.000
51
90.000
0
ARC
8
100
10
68.5800
20
83.8200
39
0.5080
40
1.2700
50
90.000
51
180.000
0
CIRCLE
8
100
62
7
10
76.2000
20
76.2000
40
0.7874
0
POLYLINE
8
100
66
1
40
0.0508
41
0.0508
0
VERTEX
8
100
10
75.8063
20
76.2000
42
1.0
0
VERTEX
8
100
10
76.5937
20
76.2000
42
1.0
0
VERTEX
8
100
10
75.8063
20
76.2000
0
SEQEND
0
CIRCLE
8
100
62
7
10
76.2000
20
76.2000
40
0.5080
0
CIRCLE
8
100
62
3
10
69.8500
20
82.5500
40
1.2700
0
POLYLINE
8
100
66
1
40
0.0508
41
0.0508
0
VERTEX
8
100
10
69.2150
20
82.5500
42
1.0
0
VERTEX
8
100
10
70.4850
20
82.5500
42
1.0
0
VERTEX
8
100
10
69.2150
20
82.5500
0
SEQEND
0
CIRCLE
8
100
62
3
10
69.8500
20
82.5500
40
0.7874
0
CIRCLE
8
100
62
3
10
82.5500
20
82.5500
40
1.2700
0
POLYLINE
8
100
66
1
40
0.0508
41
0.0508
0
VERTEX
8
100
10
81.9150
20
82.5500
42
1.0
0
VERTEX
8
100
10
83.1850
20
82.5500
42
1.0
0
VERTEX
8
100
10
81.9150
20
82.5500
0
SEQEND
0
CIRCLE
8
100
62
3
10
82.5500
20
82.5500
40
0.7874
0
CIRCLE
8
100
62
3
10
82.5500
20
69.8500
40
1.2700
0
POLYLINE
8
100
66
1
40
0.0508
41
0.0508
0
VERTEX
8
100
10
81.9150
20
69.8500
42
1.0
0
VERTEX
8
100
10
83.1850
20
69.8500
42
1.0
0
VERTEX
8
100
10
81.9150
20
69.8500
0
SEQEND
0
CIRCLE
8
100
62
3
10
82.5500
20
69.8500
40
0.7874
0
CIRCLE
8
100
62
3
10
69.8500
20
69.8500
40
1.2700
0
POLYLINE
8
100
66
1
40
0.0508
41
0.0508
0
VERTEX
8
100
10
69.2150
20
69.8500
42
1.0
0
VERTEX
8
100
10
70.4850
20
69.8500
42
1.0
0
VERTEX
8
100
10
69.2150
20
69.8500
0
SEQEND
0
CIRCLE
8
100
62
3
10
69.8500
20
69.8500
40
0.7874
0
POLYLINE
8
100
66
1
40
0.5080
41
0.5080
0
VERTEX
8
100
10
67.3100
20
68.5800
0
VERTEX
8
100
10
67.3100
20
83.8200
0
SEQEND
0
POLYLINE
8
100
66
1
40
0.5080
41
0.5080
0
VERTEX
8
100
10
68.5800
20
67.3100
0
VERTEX
8
100
10
83.8200
20
67.3100
0
SEQEND
0
POLYLINE
8
100
66
1
40
0.5080
41
0.5080
0
VERTEX
8
100
10
85.0900
20
68.5800
0
VERTEX
8
100
10
85.0900
20
83.8200
0
SEQEND
0
POLYLINE
8
100
66
1
40
0.5080
41
0.5080
0
VERTEX
8
100
10
68.5800
20
85.0900
0
VERTEX
8
100
10
83.8200
20
85.0900
0
SEQEND
0
TEXT
8
100
40
2.5400
1
U12
7
standard
50
90.000
10
110.4900
20
79.2480
0
ARC
8
100
10
117.9830
20
81.6610
39
0.2540
40
0.5080
50
0.000
51
90.000
0
ARC
8
100
10
117.9830
20
81.6610
39
0.2540
40
0.5080
50
270.000
51
0.000
0
SOLID
8
100
10
118.4402
20
78.3463
11
118.4402
21
79.1337
12
119.0498
22
78.3463
13
119.0498
23
79.1337
0
POLYLINE
8
100
66
1
40
0.0254
41
0.0254
0
VERTEX
8
100
10
118.5926
20
78.3463
42
1.0
0
VERTEX
8
100
10
118.8974
20
78.3463
42
1.0
0
VERTEX
8
100
10
118.5926
20
78.3463
0
SEQEND
0
POLYLINE
8
100
66
1
40
0.0254
41
0.0254
0
VERTEX
8
100
10
118.5926
20
79.1337
42
1.0
0
VERTEX
8
100
10
118.8974
20
79.1337
42
1.0
0
VERTEX
8
100
10
118.5926
20
79.1337
0
SEQEND
0
CIRCLE
8
100
62
7
10
118.7450
20
78.7400
40
0.0000
0
SOLID
8
100
10
119.7102
20
78.0415
11
119.7102
21
79.4385
12
120.3198
22
78.0415
13
120.3198
23
79.4385
0
CIRCLE
8
100
62
7
10
120.0150
20
78.7400
40
0.0000
0
SOLID
8
100
10
120.9802
20
78.0415
11
120.9802
21
79.4385
12
121.5898
22
78.0415
13
121.5898
23
79.4385
0
CIRCLE
8
100
62
7
10
121.2850
20
78.7400
40
0.0000
0
SOLID
8
100
10
122.2502
20
78.0415
11
122.2502
21
79.4385
12
122.8598
22
78.0415
13
122.8598
23
79.4385
0
CIRCLE
8
100
62
7
10
122.5550
20
78.7400
40
0.0000
0
SOLID
8
100
10
122.2502
20
84.0105
11
122.2502
21
85.4075
12
122.8598
22
84.0105
13
122.8598
23
85.4075
0
CIRCLE
8
100
62
7
10
122.5550
20
84.7090
40
0.0000
0
SOLID
8
100
10
120.9802
20
84.0105
11
120.9802
21
85.4075
12
121.5898
22
84.0105
13
121.5898
23
85.4075
0
CIRCLE
8
100
62
7
10
121.2850
20
84.7090
40
0.0000
0
SOLID
8
100
10
119.7102
20
84.0105
11
119.7102
21
85.4075
12
120.3198
22
84.0105
13
120.3198
23
85.4075
0
CIRCLE
8
100
62
7
10
120.0150
20
84.7090
40
0.0000
0
SOLID
8
100
10
118.4402
20
84.0105
11
118.4402
21
85.4075
12
119.0498
22
84.0105
13
119.0498
23
85.4075
0
CIRCLE
8
100
62
7
10
118.7450
20
84.7090
40
0.0000
0
POLYLINE
8
100
66
1
40
0.2540
41
0.2540
0
VERTEX
8
100
10
117.9830
20
82.1690
0
VERTEX
8
100
10
117.9830
20
83.4390
0
SEQEND
0
POLYLINE
8
100
66
1
40
0.2540
41
0.2540
0
VERTEX
8
100
10
117.9830
20
80.0100
0
VERTEX
8
100
10
117.9830
20
81.1530
0
SEQEND
0
POLYLINE
8
100
66
1
40
0.2540
41
0.2540
0
VERTEX
8
100
10
117.9830
20
83.4390
0
VERTEX
8
100
10
123.3170
20
83.4390
0
SEQEND
0
POLYLINE
8
100
66
1
40
0.2540
41
0.2540
0
VERTEX
8
100
10
123.3170
20
80.0100
0
VERTEX
8
100
10
123.3170
20
83.4390
0
SEQEND
0
POLYLINE
8
100
66
1
40
0.2540
41
0.2540
0
VERTEX
8
100
10
117.9830
20
80.0100
0
VERTEX
8
100
10
123.3170
20
80.0100
0
SEQEND
0
TEXT
8
100
40
1.5240
1
U11
7
standard
50
0.000
10
122.5550
20
42.5450
0
ARC
8
100
10
121.2850
20
43.5610
39
0.2540
40
0.0508
50
0.000
51
90.000
0
ARC
8
100
10
121.2850
20
43.5610
39
0.2540
40
0.0508
50
90.000
51
180.000
0
ARC
8
100
10
121.2850
20
43.5610
39
0.2540
40
0.0508
50
180.000
51
270.000
0
ARC
8
100
10
121.2850
20
43.5610
39
0.2540
40
0.0508
50
270.000
51
0.000
0
SOLID
8
100
10
120.4468
20
43.9547
11
120.4468
21
44.9453
12
120.8532
22
43.9547
13
120.8532
23
44.9453
0
CIRCLE
8
100
62
7
10
120.6500
20
44.4500
40
0.0000
0
SOLID
8
100
10
119.7610
20
43.9547
11
119.7610
21
44.9453
12
120.1674
22
43.9547
13
120.1674
23
44.9453
0
CIRCLE
8
100
62
7
10
119.9642
20
44.4500
40
0.0000
0
SOLID
8
100
10
121.0818
20
43.9547
11
121.0818
21
44.9453
12
121.4882
22
43.9547
13
121.4882
23
44.9453
0
CIRCLE
8
100
62
7
10
121.2850
20
44.4500
40
0.0000
0
SOLID
8
100
10
119.7610
20
41.7703
11
119.7610
21
42.7609
12
120.1674
22
41.7703
13
120.1674
23
42.7609
0
CIRCLE
8
100
62
7
10
119.9642
20
42.2656
40
0.0000
0
SOLID
8
100
10
120.4468
20
41.7703
11
120.4468
21
42.7609
12
120.8532
22
41.7703
13
120.8532
23
42.7609
0
CIRCLE
8
100
62
7
10
120.6500
20
42.2656
40
0.0000
0
SOLID
8
100
10
121.0818
20
41.7703
11
121.0818
21
42.7609
12
121.4882
22
41.7703
13
121.4882
23
42.7609
0
CIRCLE
8
100
62
7
10
121.2850
20
42.2656
40
0.0000
0
POLYLINE
8
100
66
1
40
0.1778
41
0.1778
0
VERTEX
8
100
10
121.6406
20
42.8498
0
VERTEX
8
100
10
121.6406
20
43.8658
0
SEQEND
0
POLYLINE
8
100
66
1
40
0.1778
41
0.1778
0
VERTEX
8
100
10
119.6340
20
42.8498
0
VERTEX
8
100
10
121.6406
20
42.8498
0
SEQEND
0
POLYLINE
8
100
66
1
40
0.1778
41
0.1778
0
VERTEX
8
100
10
119.6340
20
42.8498
0
VERTEX
8
100
10
119.6340
20
43.8658
0
SEQEND
0
POLYLINE
8
100
66
1
40
0.1778
41
0.1778
0
VERTEX
8
100
10
119.6340
20
43.8658
0
VERTEX
8
100
10
121.6406
20
43.8658
0
SEQEND
0
TEXT
8
100
40
1.5240
1
R11
7
standard
50
0.000
10
106.9340
20
118.8720
0
SOLID
8
100
10
109.3470
20
123.0630
11
109.3470
21
124.3330
12
111.1250
22
123.0630
13
111.1250
23
124.3330
0
CIRCLE
8
100
62
7
10
110.2360
20
123.6980
40
0.0000
0
SOLID
8
100
10
109.3470
20
121.4755
11
109.3470
21
122.3645
12
111.1250
22
121.4755
13
111.1250
23
122.3645
0
CIRCLE
8
100
62
7
10
110.2360
20
121.9200
40
0.0000
0
SOLID
8
100
10
112.1410
20
123.5075
11
112.1410
21
124.3965
12
113.9190
22
123.5075
13
113.9190
23
124.3965
0
CIRCLE
8
100
62
7
10
113.0300
20
123.9520
40
0.0000
0
SOLID
8
100
10
112.1410
20
121.4755
11
112.1410
21
122.3645
12
113.9190
22
121.4755
13
113.9190
23
122.3645
0
CIRCLE
8
100
62
7
10
113.0300
20
121.9200
40
0.0000
0
POLYLINE
8
100
66
1
40
0.2540
41
0.2540
0
VERTEX
8
100
10
114.3000
20
121.0310
0
VERTEX
8
100
10
114.3000
20
124.8410
0
SEQEND
0
POLYLINE
8
100
66
1
40
0.2540
41
0.2540
0
VERTEX
8
100
10
108.9660
20
121.0310
0
VERTEX
8
100
10
114.3000
20
121.0310
0
SEQEND
0
POLYLINE
8
100
66
1
40
0.2540
41
0.2540
0
VERTEX
8
100
10
108.9660
20
121.0310
0
VERTEX
8
100
10
108.9660
20
124.9680
0
SEQEND
0
POLYLINE
8
100
66
1
40
0.2540
41
0.2540
0
VERTEX
8
100
10
108.9660
20
124.9680
0
VERTEX
8
100
10
114.3000
20
124.9680
0
SEQEND
0
POLYLINE
8
100
66
1
40
0.2540
41
0.2540
0
VERTEX
8
100
10
111.6330
20
121.0310
0
VERTEX
8
100
10
111.6330
20
122.8090
0
SEQEND
0
POLYLINE
8
100
66
1
40
0.2540
41
0.2540
0
VERTEX
8
100
10
111.6330
20
122.8090
0
VERTEX
8
100
10
114.3000
20
122.8090
0
SEQEND
0
TEXT
8
100
40
1.5240
1
C13
7
standard
50
0.000
10
29.5910
20
48.1330
0
SOLID
8
100
10
29.7180
20
46.3169
11
29.7180
21
47.4091
12
30.7340
22
46.3169
13
30.7340
23
47.4091
0
CIRCLE
8
100
62
7
10
30.2260
20
46.8630
40
0.0000
0
SOLID
8
100
10
32.0548
20
46.3169
11
32.0548
21
47.4091
12
33.0708
22
46.3169
13
33.0708
23
47.4091
0
CIRCLE
8
100
62
7
10
32.5628
20
46.8630
40
0.0000
0
POLYLINE
8
100
66
1
40
0.1778
41
0.1778
0
VERTEX
8
100
10
29.5910
20
47.5742
0
VERTEX
8
100
10
33.1978
20
47.5742
0
SEQEND
0
POLYLINE
8
100
66
1
40
0.1778
41
0.1778
0
VERTEX
8
100
10
33.1978
20
46.1518
0
VERTEX
8
100
10
33.1978
20
47.5742
0
SEQEND
0
POLYLINE
8
100
66
1
40
0.1778
41
0.1778
0
VERTEX
8
100
10
29.5910
20
46.1518
0
VERTEX
8
100
10
33.1978
20
46.1518
0
SEQEND
0
POLYLINE
8
100
66
1
40
0.1778
41
0.1778
0
VERTEX
8
100
10
29.5910
20
46.1518
0
VERTEX
8
100
10
29.5910
20
47.5742
0
SEQEND
0
TEXT
8
100
40
1.5240
1
C33
7
standard
50
0.000
10
91.1860
20
73.0250
0
SOLID
8
100
10
91.3130
20
71.2089
11
91.3130
21
72.3011
12
92.3290
22
71.2089
13
92.3290
23
72.3011
0
CIRCLE
8
100
62
7
10
91.8210
20
71.7550
40
0.0000
0
SOLID
8
100
10
93.6498
20
71.2089
11
93.6498
21
72.3011
12
94.6658
22
71.2089
13
94.6658
23
72.3011
0
CIRCLE
8
100
62
7
10
94.1578
20
71.7550
40
0.0000
0
POLYLINE
8
100
66
1
40
0.1778
41
0.1778
0
VERTEX
8
100
10
91.1860
20
72.4662
0
VERTEX
8
100
10
94.7928
20
72.4662
0
SEQEND
0
POLYLINE
8
100
66
1
40
0.1778
41
0.1778
0
VERTEX
8
100
10
94.7928
20
71.0438
0
VERTEX
8
100
10
94.7928
20
72.4662
0
SEQEND
0
POLYLINE
8
100
66
1
40
0.1778
41
0.1778
0
VERTEX
8
100
10
91.1860
20
71.0438
0
VERTEX
8
100
10
94.7928
20
71.0438
0
SEQEND
0
POLYLINE
8
100
66
1
40
0.1778
41
0.1778
0
VERTEX
8
100
10
91.1860
20
71.0438
0
VERTEX
8
100
10
91.1860
20
72.4662
0
SEQEND
0
TEXT
8
100
40
1.5240
1
C34
7
standard
50
0.000
10
91.1860
20
81.9150
0
SOLID
8
100
10
91.3130
20
80.0989
11
91.3130
21
81.1911
12
92.3290
22
80.0989
13
92.3290
23
81.1911
0
CIRCLE
8
100
62
7
10
91.8210
20
80.6450
40
0.0000
0
SOLID
8
100
10
93.6498
20
80.0989
11
93.6498
21
81.1911
12
94.6658
22
80.0989
13
94.6658
23
81.1911
0
CIRCLE
8
100
62
7
10
94.1578
20
80.6450
40
0.0000
0
POLYLINE
8
100
66
1
40
0.1778
41
0.1778
0
VERTEX
8
100
10
91.1860
20
81.3562
0
VERTEX
8
100
10
94.7928
20
81.3562
0
SEQEND
0
POLYLINE
8
100
66
1
40
0.1778
41
0.1778
0
VERTEX
8
100
10
94.7928
20
79.9338
0
VERTEX
8
100
10
94.7928
20
81.3562
0
SEQEND
0
POLYLINE
8
100
66
1
40
0.1778
41
0.1778
0
VERTEX
8
100
10
91.1860
20
79.9338
0
VERTEX
8
100
10
94.7928
20
79.9338
0
SEQEND
0
POLYLINE
8
100
66
1
40
0.1778
41
0.1778
0
VERTEX
8
100
10
91.1860
20
79.9338
0
VERTEX
8
100
10
91.1860
20
81.3562
0
SEQEND
0
TEXT
8
100
40
1.5240
1
P1
7
standard
50
0.000
10
75.5650
20
98.0440
71
2
0
CIRCLE
8
100
62
7
10
65.4050
20
94.8690
40
0.7874
0
POLYLINE
8
100
66
1
40
0.0508
41
0.0508
0
VERTEX
8
100
10
65.0113
20
94.8690
42
1.0
0
VERTEX
8
100
10
65.7987
20
94.8690
42
1.0
0
VERTEX
8
100
10
65.0113
20
94.8690
0
SEQEND
0
CIRCLE
8
100
62
7
10
65.4050
20
94.8690
40
0.5080
0
CIRCLE
8
100
62
7
10
67.9450
20
94.8690
40
0.7874
0
POLYLINE
8
100
66
1
40
0.0508
41
0.0508
0
VERTEX
8
100
10
67.5513
20
94.8690
42
1.0
0
VERTEX
8
100
10
68.3387
20
94.8690
42
1.0
0
VERTEX
8
100
10
67.5513
20
94.8690
0
SEQEND
0
CIRCLE
8
100
62
7
10
67.9450
20
94.8690
40
0.5080
0
CIRCLE
8
100
62
7
10
70.4850
20
94.8690
40
0.7874
0
POLYLINE
8
100
66
1
40
0.0508
41
0.0508
0
VERTEX
8
100
10
70.0913
20
94.8690
42
1.0
0
VERTEX
8
100
10
70.8787
20
94.8690
42
1.0
0
VERTEX
8
100
10
70.0913
20
94.8690
0
SEQEND
0
CIRCLE
8
100
62
7
10
70.4850
20
94.8690
40
0.5080
0
CIRCLE
8
100
62
7
10
73.0250
20
94.8690
40
0.7874
0
POLYLINE
8
100
66
1
40
0.0508
41
0.0508
0
VERTEX
8
100
10
72.6313
20
94.8690
42
1.0
0
VERTEX
8
100
10
73.4187
20
94.8690
42
1.0
0
VERTEX
8
100
10
72.6313
20
94.8690
0
SEQEND
0
CIRCLE
8
100
62
7
10
73.0250
20
94.8690
40
0.5080
0
CIRCLE
8
100
62
7
10
75.5650
20
94.8690
40
0.7874
0
POLYLINE
8
100
66
1
40
0.0508
41
0.0508
0
VERTEX
8
100
10
75.1713
20
94.8690
42
1.0
0
VERTEX
8
100
10
75.9587
20
94.8690
42
1.0
0
VERTEX
8
100
10
75.1713
20
94.8690
0
SEQEND
0
CIRCLE
8
100
62
7
10
75.5650
20
94.8690
40
0.5080
0
CIRCLE
8
100
62
7
10
78.1050
20
94.8690
40
0.7874
0
POLYLINE
8
100
66
1
40
0.0508
41
0.0508
0
VERTEX
8
100
10
77.7113
20
94.8690
42
1.0
0
VERTEX
8
100
10
78.4987
20
94.8690
42
1.0
0
VERTEX
8
100
10
77.7113
20
94.8690
0
SEQEND
0
CIRCLE
8
100
62
7
10
78.1050
20
94.8690
40
0.5080
0
CIRCLE
8
100
62
7
10
80.6450
20
94.8690
40
0.7874
0
POLYLINE
8
100
66
1
40
0.0508
41
0.0508
0
VERTEX
8
100
10
80.2513
20
94.8690
42
1.0
0
VERTEX
8
100
10
81.0387
20
94.8690
42
1.0
0
VERTEX
8
100
10
80.2513
20
94.8690
0
SEQEND
0
CIRCLE
8
100
62
7
10
80.6450
20
94.8690
40
0.5080
0
SOLID
8
100
10
82.3976
20
94.0816
11
82.3976
21
95.6564
12
83.9724
22
94.0816
13
83.9724
23
95.6564
0
CIRCLE
8
100
62
7
10
83.1850
20
94.8690
40
0.5080
0
POLYLINE
8
100
66
1
40
0.2032
41
0.2032
0
VERTEX
8
100
10
81.9150
20
93.5990
0
VERTEX
8
100
10
81.9150
20
96.1390
0
SEQEND
0
POLYLINE
8
100
66
1
40
0.2032
41
0.2032
0
VERTEX
8
100
10
84.4550
20
93.5990
0
VERTEX
8
100
10
84.4550
20
96.1390
0
SEQEND
0
POLYLINE
8
100
66
1
40
0.2032
41
0.2032
0
VERTEX
8
100
10
64.1350
20
96.1390
0
VERTEX
8
100
10
84.4550
20
96.1390
0
SEQEND
0
POLYLINE
8
100
66
1
40
0.2032
41
0.2032
0
VERTEX
8
100
10
64.1350
20
93.5990
0
VERTEX
8
100
10
64.1350
20
96.1390
0
SEQEND
0
POLYLINE
8
100
66
1
40
0.2032
41
0.2032
0
VERTEX
8
100
10
64.1350
20
93.5990
0
VERTEX
8
100
10
84.4550
20
93.5990
0
SEQEND
0
TEXT
8
100
40
1.5240
1
U13
7
standard
50
0.000
10
99.3140
20
73.1520
0
ARC
8
100
10
98.1710
20
75.5650
39
0.2540
40
0.0508
50
0.000
51
90.000
0
ARC
8
100
10
98.1710
20
75.5650
39
0.2540
40
0.0508
50
90.000
51
180.000
0
ARC
8
100
10
98.1710
20
75.5650
39
0.2540
40
0.0508
50
180.000
51
270.000
0
ARC
8
100
10
98.1710
20
75.5650
39
0.2540
40
0.0508
50
270.000
51
0.000
0
SOLID
8
100
10
98.5647
20
75.9968
11
98.5647
21
76.4032
12
99.5553
22
75.9968
13
99.5553
23
76.4032
0
CIRCLE
8
100
62
7
10
99.0600
20
76.2000
40
0.0000
0
SOLID
8
100
10
98.5647
20
76.6826
11
98.5647
21
77.0890
12
99.5553
22
76.6826
13
99.5553
23
77.0890
0
CIRCLE
8
100
62
7
10
99.0600
20
76.8858
40
0.0000
0
SOLID
8
100
10
98.5647
20
75.3618
11
98.5647
21
75.7682
12
99.5553
22
75.3618
13
99.5553
23
75.7682
0
CIRCLE
8
100
62
7
10
99.0600
20
75.5650
40
0.0000
0
SOLID
8
100
10
96.3803
20
76.6826
11
96.3803
21
77.0890
12
97.3709
22
76.6826
13
97.3709
23
77.0890
0
CIRCLE
8
100
62
7
10
96.8756
20
76.8858
40
0.0000
0
SOLID
8
100
10
96.3803
20
75.9968
11
96.3803
21
76.4032
12
97.3709
22
75.9968
13
97.3709
23
76.4032
0
CIRCLE
8
100
62
7
10
96.8756
20
76.2000
40
0.0000
0
SOLID
8
100
10
96.3803
20
75.3618
11
96.3803
21
75.7682
12
97.3709
22
75.3618
13
97.3709
23
75.7682
0
CIRCLE
8
100
62
7
10
96.8756
20
75.5650
40
0.0000
0
POLYLINE
8
100
66
1
40
0.1778
41
0.1778
0
VERTEX
8
100
10
97.4598
20
75.2094
0
VERTEX
8
100
10
98.4758
20
75.2094
0
SEQEND
0
POLYLINE
8
100
66
1
40
0.1778
41
0.1778
0
VERTEX
8
100
10
97.4598
20
75.2094
0
VERTEX
8
100
10
97.4598
20
77.2160
0
SEQEND
0
POLYLINE
8
100
66
1
40
0.1778
41
0.1778
0
VERTEX
8
100
10
97.4598
20
77.2160
0
VERTEX
8
100
10
98.4758
20
77.2160
0
SEQEND
0
POLYLINE
8
100
66
1
40
0.1778
41
0.1778
0
VERTEX
8
100
10
98.4758
20
75.2094
0
VERTEX
8
100
10
98.4758
20
77.2160
0
SEQEND
0
TEXT
8
100
40
1.5240
1
U1
7
standard
50
0.000
10
31.1150
20
71.7550
0
ARC
8
100
10
31.4960
20
70.6120
39
0.2540
40
0.5080
50
180.000
51
270.000
0
ARC
8
100
10
31.4960
20
70.6120
39
0.2540
40
0.5080
50
270.000
51
0.000
0
SOLID
8
100
10
28.1813
20
69.5452
11
28.1813
21
70.1548
12
28.9687
22
69.5452
13
28.9687
23
70.1548
0
POLYLINE
8
100
66
1
40
0.0254
41
0.0254
0
VERTEX
8
100
10
28.0289
20
69.8500
42
1.0
0
VERTEX
8
100
10
28.3337
20
69.8500
42
1.0
0
VERTEX
8
100
10
28.0289
20
69.8500
0
SEQEND
0
POLYLINE
8
100
66
1
40
0.0254
41
0.0254
0
VERTEX
8
100
10
28.8163
20
69.8500
42
1.0
0
VERTEX
8
100
10
29.1211
20
69.8500
42
1.0
0
VERTEX
8
100
10
28.8163
20
69.8500
0
SEQEND
0
CIRCLE
8
100
62
7
10
28.5750
20
69.8500
40
0.0000
0
SOLID
8
100
10
27.8765
20
68.2752
11
27.8765
21
68.8848
12
29.2735
22
68.2752
13
29.2735
23
68.8848
0
CIRCLE
8
100
62
7
10
28.5750
20
68.5800
40
0.0000
0
SOLID
8
100
10
27.8765
20
67.0052
11
27.8765
21
67.6148
12
29.2735
22
67.0052
13
29.2735
23
67.6148
0
CIRCLE
8
100
62
7
10
28.5750
20
67.3100
40
0.0000
0
SOLID
8
100
10
27.8765
20
65.7352
11
27.8765
21
66.3448
12
29.2735
22
65.7352
13
29.2735
23
66.3448
0
CIRCLE
8
100
62
7
10
28.5750
20
66.0400
40
0.0000
0
SOLID
8
100
10
27.8765
20
64.4652
11
27.8765
21
65.0748
12
29.2735
22
64.4652
13
29.2735
23
65.0748
0
CIRCLE
8
100
62
7
10
28.5750
20
64.7700
40
0.0000
0
SOLID
8
100
10
27.8765
20
63.1952
11
27.8765
21
63.8048
12
29.2735
22
63.1952
13
29.2735
23
63.8048
0
CIRCLE
8
100
62
7
10
28.5750
20
63.5000
40
0.0000
0
SOLID
8
100
10
27.8765
20
61.9252
11
27.8765
21
62.5348
12
29.2735
22
61.9252
13
29.2735
23
62.5348
0
CIRCLE
8
100
62
7
10
28.5750
20
62.2300
40
0.0000
0
SOLID
8
100
10
33.8455
20
61.9252
11
33.8455
21
62.5348
12
35.2425
22
61.9252
13
35.2425
23
62.5348
0
CIRCLE
8
100
62
7
10
34.5440
20
62.2300
40
0.0000
0
SOLID
8
100
10
33.8455
20
63.1952
11
33.8455
21
63.8048
12
35.2425
22
63.1952
13
35.2425
23
63.8048
0
CIRCLE
8
100
62
7
10
34.5440
20
63.5000
40
0.0000
0
SOLID
8
100
10
33.8455
20
64.4652
11
33.8455
21
65.0748
12
35.2425
22
64.4652
13
35.2425
23
65.0748
0
CIRCLE
8
100
62
7
10
34.5440
20
64.7700
40
0.0000
0
SOLID
8
100
10
33.8455
20
65.7352
11
33.8455
21
66.3448
12
35.2425
22
65.7352
13
35.2425
23
66.3448
0
CIRCLE
8
100
62
7
10
34.5440
20
66.0400
40
0.0000
0
SOLID
8
100
10
33.8455
20
67.0052
11
33.8455
21
67.6148
12
35.2425
22
67.0052
13
35.2425
23
67.6148
0
CIRCLE
8
100
62
7
10
34.5440
20
67.3100
40
0.0000
0
SOLID
8
100
10
33.8455
20
68.2752
11
33.8455
21
68.8848
12
35.2425
22
68.2752
13
35.2425
23
68.8848
0
CIRCLE
8
100
62
7
10
34.5440
20
68.5800
40
0.0000
0
SOLID
8
100
10
33.8455
20
69.5452
11
33.8455
21
70.1548
12
35.2425
22
69.5452
13
35.2425
23
70.1548
0
CIRCLE
8
100
62
7
10
34.5440
20
69.8500
40
0.0000
0
POLYLINE
8
100
66
1
40
0.2540
41
0.2540
0
VERTEX
8
100
10
29.8450
20
61.4680
0
VERTEX
8
100
10
29.8450
20
70.6120
0
SEQEND
0
POLYLINE
8
100
66
1
40
0.2540
41
0.2540
0
VERTEX
8
100
10
29.8450
20
61.4680
0
VERTEX
8
100
10
33.2740
20
61.4680
0
SEQEND
0
POLYLINE
8
100
66
1
40
0.2540
41
0.2540
0
VERTEX
8
100
10
33.2740
20
61.4680
0
VERTEX
8
100
10
33.2740
20
70.6120
0
SEQEND
0
POLYLINE
8
100
66
1
40
0.2540
41
0.2540
0
VERTEX
8
100
10
29.8450
20
70.6120
0
VERTEX
8
100
10
30.8610
20
70.6120
0
SEQEND
0
POLYLINE
8
100
66
1
40
0.2540
41
0.2540
0
VERTEX
8
100
10
32.0040
20
70.6120
0
VERTEX
8
100
10
33.2740
20
70.6120
0
SEQEND
0
TEXT
8
100
40
1.5240
1
U15
7
standard
50
0.000
10
55.2450
20
104.7750
0
ARC
8
100
10
57.2770
20
103.6320
39
0.2540
40
1.0160
50
180.000
51
270.000
0
ARC
8
100
10
57.2770
20
103.6320
39
0.2540
40
1.0160
50
270.000
51
0.000
0
SOLID
8
100
10
54.2417
20
95.6183
11
54.2417
21
97.4217
12
56.2483
22
95.6183
13
56.2483
23
97.4217
0
CIRCLE
8
100
62
7
10
55.2450
20
96.5200
40
0.0000
0
SOLID
8
100
10
54.2417
20
100.6983
11
54.2417
21
102.5017
12
56.2483
22
100.6983
13
56.2483
23
102.5017
0
CIRCLE
8
100
62
7
10
55.2450
20
101.6000
40
0.0000
0
SOLID
8
100
10
58.4327
20
95.6183
11
58.4327
21
97.4217
12
60.4393
22
95.6183
13
60.4393
23
97.4217
0
CIRCLE
8
100
62
7
10
59.4360
20
96.5200
40
0.0000
0
SOLID
8
100
10
58.4327
20
100.6983
11
58.4327
21
102.5017
12
60.4393
22
100.6983
13
60.4393
23
102.5017
0
CIRCLE
8
100
62
7
10
59.4360
20
101.6000
40
0.0000
0
POLYLINE
8
100
66
1
40
0.3810
41
0.3810
0
VERTEX
8
100
10
53.3400
20
103.6320
0
VERTEX
8
100
10
56.2610
20
103.6320
0
SEQEND
0
POLYLINE
8
100
66
1
40
0.3810
41
0.3810
0
VERTEX
8
100
10
58.2930
20
103.6320
0
VERTEX
8
100
10
61.3410
20
103.6320
0
SEQEND
0
POLYLINE
8
100
66
1
40
0.3810
41
0.3810
0
VERTEX
8
100
10
61.3410
20
94.4880
0
VERTEX
8
100
10
61.3410
20
103.6320
0
SEQEND
0
POLYLINE
8
100
66
1
40
0.3810
41
0.3810
0
VERTEX
8
100
10
53.3400
20
94.4880
0
VERTEX
8
100
10
61.3410
20
94.4880
0
SEQEND
0
POLYLINE
8
100
66
1
40
0.3810
41
0.3810
0
VERTEX
8
100
10
53.3400
20
94.4880
0
VERTEX
8
100
10
53.3400
20
103.5050
0
SEQEND
0
TEXT
8
100
40
1.5240
1
U14
7
standard
50
0.000
10
46.4820
20
102.9970
0
SOLID
8
100
10
47.4980
20
99.1235
11
47.4980
21
100.1649
12
48.2600
22
99.1235
13
48.2600
23
100.1649
0
CIRCLE
8
100
62
7
10
47.8790
20
99.6442
40
0.0000
0
SOLID
8
100
10
46.2280
20
99.1235
11
46.2280
21
100.1649
12
46.9900
22
99.1235
13
46.9900
23
100.1649
0
CIRCLE
8
100
62
7
10
46.6090
20
99.6442
40
0.0000
0
SOLID
8
100
10
47.4980
20
101.0793
11
47.4980
21
102.1207
12
48.2600
22
101.0793
13
48.2600
23
102.1207
0
CIRCLE
8
100
62
7
10
47.8790
20
101.6000
40
0.0000
0
SOLID
8
100
10
46.2280
20
101.4349
11
46.2280
21
101.7651
12
46.9900
22
101.4349
13
46.9900
23
101.7651
0
POLYLINE
8
100
66
1
40
0.0254
41
0.0254
0
VERTEX
8
100
10
46.4185
20
101.4349
42
1.0
0
VERTEX
8
100
10
46.7995
20
101.4349
42
1.0
0
VERTEX
8
100
10
46.4185
20
101.4349
0
SEQEND
0
POLYLINE
8
100
66
1
40
0.0254
41
0.0254
0
VERTEX
8
100
10
46.4185
20
101.7651
42
1.0
0
VERTEX
8
100
10
46.7995
20
101.7651
42
1.0
0
VERTEX
8
100
10
46.4185
20
101.7651
0
SEQEND
0
CIRCLE
8
100
62
7
10
46.6090
20
101.6000
40
0.0000
0
POLYLINE
8
100
66
1
40
0.2032
41
0.2032
0
VERTEX
8
100
10
48.5394
20
98.8822
0
VERTEX
8
100
10
48.5394
20
102.3112
0
SEQEND
0
POLYLINE
8
100
66
1
40
0.2032
41
0.2032
0
VERTEX
8
100
10
45.9486
20
98.8822
0
VERTEX
8
100
10
48.5394
20
98.8822
0
SEQEND
0
POLYLINE
8
100
66
1
40
0.2032
41
0.2032
0
VERTEX
8
100
10
45.9486
20
98.8822
0
VERTEX
8
100
10
45.9486
20
102.3112
0
SEQEND
0
POLYLINE
8
100
66
1
40
0.2032
41
0.2032
0
VERTEX
8
100
10
45.9486
20
102.3112
0
VERTEX
8
100
10
48.5394
20
102.3112
0
SEQEND
0
TEXT
8
100
40
1.5240
1
R7
7
standard
50
0.000
10
56.1340
20
42.1640
0
SOLID
8
100
10
58.0390
20
38.3540
11
58.0390
21
39.6240
12
59.8170
22
38.3540
13
59.8170
23
39.6240
0
CIRCLE
8
100
62
7
10
58.9280
20
38.9890
40
0.0000
0
SOLID
8
100
10
58.0390
20
40.3225
11
58.0390
21
41.2115
12
59.8170
22
40.3225
13
59.8170
23
41.2115
0
CIRCLE
8
100
62
7
10
58.9280
20
40.7670
40
0.0000
0
SOLID
8
100
10
55.2450
20
38.2905
11
55.2450
21
39.1795
12
57.0230
22
38.2905
13
57.0230
23
39.1795
0
CIRCLE
8
100
62
7
10
56.1340
20
38.7350
40
0.0000
0
SOLID
8
100
10
55.2450
20
40.3225
11
55.2450
21
41.2115
12
57.0230
22
40.3225
13
57.0230
23
41.2115
0
CIRCLE
8
100
62
7
10
56.1340
20
40.7670
40
0.0000
0
POLYLINE
8
100
66
1
40
0.2540
41
0.2540
0
VERTEX
8
100
10
54.8640
20
39.8780
0
VERTEX
8
100
10
57.5310
20
39.8780
0
SEQEND
0
POLYLINE
8
100
66
1
40
0.2540
41
0.2540
0
VERTEX
8
100
10
57.5310
20
39.8780
0
VERTEX
8
100
10
57.5310
20
41.6560
0
SEQEND
0
POLYLINE
8
100
66
1
40
0.2540
41
0.2540
0
VERTEX
8
100
10
54.8640
20
37.7190
0
VERTEX
8
100
10
60.1980
20
37.7190
0
SEQEND
0
POLYLINE
8
100
66
1
40
0.2540
41
0.2540
0
VERTEX
8
100
10
60.1980
20
37.7190
0
VERTEX
8
100
10
60.1980
20
41.6560
0
SEQEND
0
POLYLINE
8
100
66
1
40
0.2540
41
0.2540
0
VERTEX
8
100
10
54.8640
20
41.6560
0
VERTEX
8
100
10
60.1980
20
41.6560
0
SEQEND
0
POLYLINE
8
100
66
1
40
0.2540
41
0.2540
0
VERTEX
8
100
10
54.8640
20
37.8460
0
VERTEX
8
100
10
54.8640
20
41.6560
0
SEQEND
0
TEXT
8
100
40
1.5240
1
U7
7
standard
50
0.000
10
42.2910
20
42.6720
0
ARC
8
100
10
43.3070
20
38.7350
39
0.2540
40
0.7620
50
0.000
51
90.000
0
ARC
8
100
10
43.3070
20
38.7350
39
0.2540
40
0.7620
50
90.000
51
180.000
0
ARC
8
100
10
43.3070
20
38.7350
39
0.2540
40
0.7620
50
180.000
51
270.000
0
ARC
8
100
10
43.3070
20
38.7350
39
0.2540
40
0.7620
50
270.000
51
0.000
0
SOLID
8
100
10
40.8686
20
38.2270
11
40.8686
21
39.2430
12
41.6814
22
38.2270
13
41.6814
23
39.2430
0
POLYLINE
8
100
66
1
40
0.0508
41
0.0508
0
VERTEX
8
100
10
40.6146
20
38.7350
42
1.0
0
VERTEX
8
100
10
41.1226
20
38.7350
42
1.0
0
VERTEX
8
100
10
40.6146
20
38.7350
0
SEQEND
0
POLYLINE
8
100
66
1
40
0.0508
41
0.0508
0
VERTEX
8
100
10
41.4274
20
38.7350
42
1.0
0
VERTEX
8
100
10
41.9354
20
38.7350
42
1.0
0
VERTEX
8
100
10
41.4274
20
38.7350
0
SEQEND
0
CIRCLE
8
100
62
7
10
41.2750
20
38.7350
40
0.0000
0
SOLID
8
100
10
44.4246
20
38.2270
11
44.4246
21
39.2430
12
46.2534
22
38.2270
13
46.2534
23
39.2430
0
CIRCLE
8
100
62
7
10
45.3390
20
38.7350
40
0.0000
0
SOLID
8
100
10
42.7990
20
39.8526
11
42.7990
21
41.6814
12
43.8150
22
39.8526
13
43.8150
23
41.6814
0
CIRCLE
8
100
62
7
10
43.3070
20
40.7670
40
0.0000
0
SOLID
8
100
10
42.7990
20
35.7886
11
42.7990
21
37.6174
12
43.8150
22
35.7886
13
43.8150
23
37.6174
0
CIRCLE
8
100
62
7
10
43.3070
20
36.7030
40
0.0000
0
TEXT
8
100
40
1.5240
1
R8
7
standard
50
0.000
10
49.2760
20
40.2590
0
SOLID
8
100
10
47.0789
20
40.5638
11
47.0789
21
41.5798
12
48.1711
22
40.5638
13
48.1711
23
41.5798
0
CIRCLE
8
100
62
7
10
47.6250
20
41.0718
40
0.0000
0
SOLID
8
100
10
47.0789
20
38.2270
11
47.0789
21
39.2430
12
48.1711
22
38.2270
13
48.1711
23
39.2430
0
CIRCLE
8
100
62
7
10
47.6250
20
38.7350
40
0.0000
0
POLYLINE
8
100
66
1
40
0.1778
41
0.1778
0
VERTEX
8
100
10
46.9138
20
38.1000
0
VERTEX
8
100
10
48.3362
20
38.1000
0
SEQEND
0
POLYLINE
8
100
66
1
40
0.1778
41
0.1778
0
VERTEX
8
100
10
48.3362
20
38.1000
0
VERTEX
8
100
10
48.3362
20
41.7068
0
SEQEND
0
POLYLINE
8
100
66
1
40
0.1778
41
0.1778
0
VERTEX
8
100
10
46.9138
20
41.7068
0
VERTEX
8
100
10
48.3362
20
41.7068
0
SEQEND
0
POLYLINE
8
100
66
1
40
0.1778
41
0.1778
0
VERTEX
8
100
10
46.9138
20
38.1000
0
VERTEX
8
100
10
46.9138
20
41.7068
0
SEQEND
0
TEXT
8
100
40
1.5240
1
C7
7
standard
50
0.000
10
79.2480
20
34.2900
0
SOLID
8
100
10
79.3750
20
32.4739
11
79.3750
21
33.5661
12
80.3910
22
32.4739
13
80.3910
23
33.5661
0
CIRCLE
8
100
62
7
10
79.8830
20
33.0200
40
0.0000
0
SOLID
8
100
10
81.7118
20
32.4739
11
81.7118
21
33.5661
12
82.7278
22
32.4739
13
82.7278
23
33.5661
0
CIRCLE
8
100
62
7
10
82.2198
20
33.0200
40
0.0000
0
POLYLINE
8
100
66
1
40
0.1778
41
0.1778
0
VERTEX
8
100
10
79.2480
20
33.7312
0
VERTEX
8
100
10
82.8548
20
33.7312
0
SEQEND
0
POLYLINE
8
100
66
1
40
0.1778
41
0.1778
0
VERTEX
8
100
10
82.8548
20
32.3088
0
VERTEX
8
100
10
82.8548
20
33.7312
0
SEQEND
0
POLYLINE
8
100
66
1
40
0.1778
41
0.1778
0
VERTEX
8
100
10
79.2480
20
32.3088
0
VERTEX
8
100
10
82.8548
20
32.3088
0
SEQEND
0
POLYLINE
8
100
66
1
40
0.1778
41
0.1778
0
VERTEX
8
100
10
79.2480
20
32.3088
0
VERTEX
8
100
10
79.2480
20
33.7312
0
SEQEND
0
TEXT
8
100
40
1.5240
1
R9
7
standard
50
0.000
10
64.2620
20
33.6550
0
SOLID
8
100
10
62.5348
20
33.8709
11
62.5348
21
34.9631
12
63.5508
22
33.8709
13
63.5508
23
34.9631
0
CIRCLE
8
100
62
7
10
63.0428
20
34.4170
40
0.0000
0
SOLID
8
100
10
60.1980
20
33.8709
11
60.1980
21
34.9631
12
61.2140
22
33.8709
13
61.2140
23
34.9631
0
CIRCLE
8
100
62
7
10
60.7060
20
34.4170
40
0.0000
0
POLYLINE
8
100
66
1
40
0.1778
41
0.1778
0
VERTEX
8
100
10
60.0710
20
35.1282
0
VERTEX
8
100
10
63.6778
20
35.1282
0
SEQEND
0
POLYLINE
8
100
66
1
40
0.1778
41
0.1778
0
VERTEX
8
100
10
63.6778
20
33.7058
0
VERTEX
8
100
10
63.6778
20
35.1282
0
SEQEND
0
POLYLINE
8
100
66
1
40
0.1778
41
0.1778
0
VERTEX
8
100
10
60.0710
20
33.7058
0
VERTEX
8
100
10
63.6778
20
33.7058
0
SEQEND
0
POLYLINE
8
100
66
1
40
0.1778
41
0.1778
0
VERTEX
8
100
10
60.0710
20
33.7058
0
VERTEX
8
100
10
60.0710
20
35.1282
0
SEQEND
0
TEXT
8
100
40
1.5240
1
L11
7
standard
50
0.000
10
69.2150
20
25.0190
0
SOLID
8
100
10
67.8180
20
28.5750
11
67.8180
21
29.8450
12
68.5800
22
28.5750
13
68.5800
23
29.8450
0
CIRCLE
8
100
62
7
10
68.1990
20
29.2100
40
0.0000
0
SOLID
8
100
10
67.8180
20
26.2890
11
67.8180
21
27.5590
12
68.5800
22
26.2890
13
68.5800
23
27.5590
0
CIRCLE
8
100
62
7
10
68.1990
20
26.9240
40
0.0000
0
SOLID
8
100
10
65.5320
20
27.3050
11
65.5320
21
28.8290
12
67.0560
22
27.3050
13
67.0560
23
28.8290
0
CIRCLE
8
100
62
7
10
66.2940
20
28.0670
40
0.0000
0
SOLID
8
100
10
69.2150
20
27.3050
11
69.2150
21
28.8290
12
70.7390
22
27.3050
13
70.7390
23
28.8290
0
CIRCLE
8
100
62
7
10
69.9770
20
28.0670
40
0.0000
0
POLYLINE
8
100
66
1
40
0.2540
41
0.2540
0
VERTEX
8
100
10
68.8340
20
29.0830
0
VERTEX
8
100
10
70.9930
20
29.0830
0
SEQEND
0
POLYLINE
8
100
66
1
40
0.2540
41
0.2540
0
VERTEX
8
100
10
70.9930
20
27.0510
0
VERTEX
8
100
10
70.9930
20
29.0830
0
SEQEND
0
POLYLINE
8
100
66
1
40
0.2540
41
0.2540
0
VERTEX
8
100
10
68.8340
20
27.0510
0
VERTEX
8
100
10
70.9930
20
27.0510
0
SEQEND
0
POLYLINE
8
100
66
1
40
0.2540
41
0.2540
0
VERTEX
8
100
10
65.2780
20
27.0510
0
VERTEX
8
100
10
67.5640
20
27.0510
0
SEQEND
0
POLYLINE
8
100
66
1
40
0.2540
41
0.2540
0
VERTEX
8
100
10
65.2780
20
27.0510
0
VERTEX
8
100
10
65.2780
20
29.0830
0
SEQEND
0
POLYLINE
8
100
66
1
40
0.2540
41
0.2540
0
VERTEX
8
100
10
65.2780
20
29.0830
0
VERTEX
8
100
10
67.5640
20
29.0830
0
SEQEND
0
TEXT
8
100
40
1.5240
1
J5
7
standard
50
0.000
10
114.4270
20
24.6380
0
SOLID
8
100
10
114.8080
20
29.3497
11
114.8080
21
30.3403
12
116.3320
22
29.3497
13
116.3320
23
30.3403
0
CIRCLE
8
100
62
7
10
115.5700
20
29.8450
40
0.0000
0
SOLID
8
100
10
112.6109
20
31.0261
11
112.6109
21
32.2199
12
114.8207
22
31.0261
13
114.8207
23
32.2199
0
CIRCLE
8
100
62
7
10
113.7158
20
31.6230
40
0.0000
0
SOLID
8
100
10
112.6109
20
27.4701
11
112.6109
21
28.6639
12
114.8207
22
27.4701
13
114.8207
23
28.6639
0
CIRCLE
8
100
62
7
10
113.7158
20
28.0670
40
0.0000
0
POLYLINE
8
100
66
1
40
0.1778
41
0.1778
0
VERTEX
8
100
10
112.4204
20
27.2542
0
VERTEX
8
100
10
112.4204
20
29.7942
0
SEQEND
0
POLYLINE
8
100
66
1
40
0.1778
41
0.1778
0
VERTEX
8
100
10
112.4204
20
27.2542
0
VERTEX
8
100
10
116.4844
20
27.2542
0
SEQEND
0
POLYLINE
8
100
66
1
40
0.1778
41
0.1778
0
VERTEX
8
100
10
116.4844
20
27.2542
0
VERTEX
8
100
10
116.4844
20
32.4612
0
SEQEND
0
POLYLINE
8
100
66
1
40
0.1778
41
0.1778
0
VERTEX
8
100
10
112.4204
20
32.4612
0
VERTEX
8
100
10
116.4844
20
32.4612
0
SEQEND
0
POLYLINE
8
100
66
1
40
0.1778
41
0.1778
0
VERTEX
8
100
10
112.4204
20
29.6672
0
VERTEX
8
100
10
112.4204
20
32.4612
0
SEQEND
0
TEXT
8
100
40
1.5240
1
J6
7
standard
50
0.000
10
124.4600
20
52.9590
0
SOLID
8
100
10
120.7897
20
52.1970
11
120.7897
21
53.7210
12
121.7803
22
52.1970
13
121.7803
23
53.7210
0
CIRCLE
8
100
62
7
10
121.2850
20
52.9590
40
0.0000
0
SOLID
8
100
10
122.4661
20
53.7083
11
122.4661
21
55.9181
12
123.6599
22
53.7083
13
123.6599
23
55.9181
0
CIRCLE
8
100
62
7
10
123.0630
20
54.8132
40
0.0000
0
SOLID
8
100
10
118.9101
20
53.7083
11
118.9101
21
55.9181
12
120.1039
22
53.7083
13
120.1039
23
55.9181
0
CIRCLE
8
100
62
7
10
119.5070
20
54.8132
40
0.0000
0
POLYLINE
8
100
66
1
40
0.1778
41
0.1778
0
VERTEX
8
100
10
121.1072
20
56.1086
0
VERTEX
8
100
10
123.9012
20
56.1086
0
SEQEND
0
POLYLINE
8
100
66
1
40
0.1778
41
0.1778
0
VERTEX
8
100
10
123.9012
20
52.0446
0
VERTEX
8
100
10
123.9012
20
56.1086
0
SEQEND
0
POLYLINE
8
100
66
1
40
0.1778
41
0.1778
0
VERTEX
8
100
10
118.6942
20
52.0446
0
VERTEX
8
100
10
123.9012
20
52.0446
0
SEQEND
0
POLYLINE
8
100
66
1
40
0.1778
41
0.1778
0
VERTEX
8
100
10
118.6942
20
52.0446
0
VERTEX
8
100
10
118.6942
20
56.1086
0
SEQEND
0
POLYLINE
8
100
66
1
40
0.1778
41
0.1778
0
VERTEX
8
100
10
118.6942
20
56.1086
0
VERTEX
8
100
10
121.2342
20
56.1086
0
SEQEND
0
TEXT
8
100
40
1.5240
1
J7
7
standard
50
0.000
10
124.3330
20
110.8710
0
SOLID
8
100
10
120.7897
20
110.8710
11
120.7897
21
112.3950
12
121.7803
22
110.8710
13
121.7803
23
112.3950
0
CIRCLE
8
100
62
7
10
121.2850
20
111.6330
40
0.0000
0
SOLID
8
100
10
118.9101
20
108.6739
11
118.9101
21
110.8837
12
120.1039
22
108.6739
13
120.1039
23
110.8837
0
CIRCLE
8
100
62
7
10
119.5070
20
109.7788
40
0.0000
0
SOLID
8
100
10
122.4661
20
108.6739
11
122.4661
21
110.8837
12
123.6599
22
108.6739
13
123.6599
23
110.8837
0
CIRCLE
8
100
62
7
10
123.0630
20
109.7788
40
0.0000
0
POLYLINE
8
100
66
1
40
0.1778
41
0.1778
0
VERTEX
8
100
10
121.3358
20
108.4834
0
VERTEX
8
100
10
123.8758
20
108.4834
0
SEQEND
0
POLYLINE
8
100
66
1
40
0.1778
41
0.1778
0
VERTEX
8
100
10
123.8758
20
108.4834
0
VERTEX
8
100
10
123.8758
20
112.5474
0
SEQEND
0
POLYLINE
8
100
66
1
40
0.1778
41
0.1778
0
VERTEX
8
100
10
118.6688
20
112.5474
0
VERTEX
8
100
10
123.8758
20
112.5474
0
SEQEND
0
POLYLINE
8
100
66
1
40
0.1778
41
0.1778
0
VERTEX
8
100
10
118.6688
20
108.4834
0
VERTEX
8
100
10
118.6688
20
112.5474
0
SEQEND
0
POLYLINE
8
100
66
1
40
0.1778
41
0.1778
0
VERTEX
8
100
10
118.6688
20
108.4834
0
VERTEX
8
100
10
121.4628
20
108.4834
0
SEQEND
0
TEXT
8
100
40
1.5240
1
R10
7
standard
50
0.000
10
54.6100
20
27.4320
0
SOLID
8
100
10
56.9468
20
29.6799
11
56.9468
21
30.7721
12
57.9628
22
29.6799
13
57.9628
23
30.7721
0
CIRCLE
8
100
62
7
10
57.4548
20
30.2260
40
0.0000
0
SOLID
8
100
10
54.6100
20
29.6799
11
54.6100
21
30.7721
12
55.6260
22
29.6799
13
55.6260
23
30.7721
0
CIRCLE
8
100
62
7
10
55.1180
20
30.2260
40
0.0000
0
POLYLINE
8
100
66
1
40
0.1778
41
0.1778
0
VERTEX
8
100
10
54.4830
20
29.5148
0
VERTEX
8
100
10
54.4830
20
30.9372
0
SEQEND
0
POLYLINE
8
100
66
1
40
0.1778
41
0.1778
0
VERTEX
8
100
10
54.4830
20
29.5148
0
VERTEX
8
100
10
58.0898
20
29.5148
0
SEQEND
0
POLYLINE
8
100
66
1
40
0.1778
41
0.1778
0
VERTEX
8
100
10
58.0898
20
29.5148
0
VERTEX
8
100
10
58.0898
20
30.9372
0
SEQEND
0
POLYLINE
8
100
66
1
40
0.1778
41
0.1778
0
VERTEX
8
100
10
54.4830
20
30.9372
0
VERTEX
8
100
10
58.0898
20
30.9372
0
SEQEND
0
TEXT
8
100
40
1.5240
1
C37
7
standard
50
0.000
10
122.5550
20
59.8170
0
SOLID
8
100
10
120.7389
20
59.4360
11
120.7389
21
60.4520
12
121.8311
22
59.4360
13
121.8311
23
60.4520
0
CIRCLE
8
100
62
7
10
121.2850
20
59.9440
40
0.0000
0
SOLID
8
100
10
120.7389
20
61.7728
11
120.7389
21
62.7888
12
121.8311
22
61.7728
13
121.8311
23
62.7888
0
CIRCLE
8
100
62
7
10
121.2850
20
62.2808
40
0.0000
0
POLYLINE
8
100
66
1
40
0.1778
41
0.1778
0
VERTEX
8
100
10
120.5738
20
59.3090
0
VERTEX
8
100
10
120.5738
20
62.9158
0
SEQEND
0
POLYLINE
8
100
66
1
40
0.1778
41
0.1778
0
VERTEX
8
100
10
120.5738
20
62.9158
0
VERTEX
8
100
10
121.9962
20
62.9158
0
SEQEND
0
POLYLINE
8
100
66
1
40
0.1778
41
0.1778
0
VERTEX
8
100
10
121.9962
20
59.3090
0
VERTEX
8
100
10
121.9962
20
62.9158
0
SEQEND
0
POLYLINE
8
100
66
1
40
0.1778
41
0.1778
0
VERTEX
8
100
10
120.5738
20
59.3090
0
VERTEX
8
100
10
121.9962
20
59.3090
0
SEQEND
0
TEXT
8
100
40
1.5240
1
C38
7
standard
50
0.000
10
115.9510
20
104.5210
0
SOLID
8
100
10
120.7389
20
104.0130
11
120.7389
21
105.0290
12
121.8311
22
104.0130
13
121.8311
23
105.0290
0
CIRCLE
8
100
62
7
10
121.2850
20
104.5210
40
0.0000
0
SOLID
8
100
10
120.7389
20
106.3498
11
120.7389
21
107.3658
12
121.8311
22
106.3498
13
121.8311
23
107.3658
0
CIRCLE
8
100
62
7
10
121.2850
20
106.8578
40
0.0000
0
POLYLINE
8
100
66
1
40
0.1778
41
0.1778
0
VERTEX
8
100
10
120.5738
20
103.8860
0
VERTEX
8
100
10
121.9962
20
103.8860
0
SEQEND
0
POLYLINE
8
100
66
1
40
0.1778
41
0.1778
0
VERTEX
8
100
10
121.9962
20
103.8860
0
VERTEX
8
100
10
121.9962
20
107.4928
0
SEQEND
0
POLYLINE
8
100
66
1
40
0.1778
41
0.1778
0
VERTEX
8
100
10
120.5738
20
107.4928
0
VERTEX
8
100
10
121.9962
20
107.4928
0
SEQEND
0
POLYLINE
8
100
66
1
40
0.1778
41
0.1778
0
VERTEX
8
100
10
120.5738
20
103.8860
0
VERTEX
8
100
10
120.5738
20
107.4928
0
SEQEND
0
TEXT
8
100
40
1.5240
1
TOP COPPER, LAYER 1
7
standard
50
0.000
10
149.8600
20
127.0000
0
POLYLINE
8
100
66
1
40
0.1778
41
0.1778
0
VERTEX
8
100
10
47.9298
20
65.1510
0
VERTEX
8
100
10
50.9778
20
62.1030
0
SEQEND
0
POLYLINE
8
100
66
1
40
0.1778
41
0.1778
0
VERTEX
8
100
10
47.4472
20
64.7446
0
VERTEX
8
100
10
50.5968
20
61.5950
0
SEQEND
0
POLYLINE
8
100
66
1
40
0.1778
41
0.1778
0
VERTEX
8
100
10
96.6470
20
63.1190
0
VERTEX
8
100
10
99.3140
20
60.4520
0
SEQEND
0
POLYLINE
8
100
66
1
40
0.1778
41
0.1778
0
VERTEX
8
100
10
50.4444
20
67.2846
0
VERTEX
8
100
10
54.3306
20
63.3984
0
SEQEND
0
POLYLINE
8
100
66
1
40
0.1778
41
0.1778
0
VERTEX
8
100
10
49.9618
20
66.6242
0
VERTEX
8
100
10
53.4924
20
63.0936
0
SEQEND
0
POLYLINE
8
100
66
1
40
0.1778
41
0.1778
0
VERTEX
8
100
10
33.7820
20
71.8820
0
VERTEX
8
100
10
37.9222
20
76.0222
0
SEQEND
0
POLYLINE
8
100
66
1
40
0.1778
41
0.1778
0
VERTEX
8
100
10
34.1630
20
73.9140
0
VERTEX
8
100
10
37.7698
20
77.5208
0
SEQEND
0
POLYLINE
8
100
66
1
40
0.1778
41
0.1778
0
VERTEX
8
100
10
60.9600
20
83.3120
0
VERTEX
8
100
10
65.4050
20
87.7570
0
SEQEND
0
POLYLINE
8
100
66
1
40
0.1778
41
0.1778
0
VERTEX
8
100
10
61.0870
20
82.9310
0
VERTEX
8
100
10
65.5320
20
87.3760
0
SEQEND
0
POLYLINE
8
100
66
1
40
0.1778
41
0.1778
0
VERTEX
8
100
10
86.3600
20
108.9660
0
VERTEX
8
100
10
89.1540
20
111.7600
0
SEQEND
0
POLYLINE
8
100
66
1
40
0.1778
41
0.1778
0
VERTEX
8
100
10
61.0870
20
82.4230
0
VERTEX
8
100
10
65.6590
20
86.9950
0
SEQEND
0
POLYLINE
8
100
66
1
40
0.1778
41
0.1778
0
VERTEX
8
100
10
90.5510
20
86.9950
0
VERTEX
8
100
10
96.9010
20
80.6450
0
SEQEND
0
POLYLINE
8
100
66
1
40
0.1778
41
0.1778
0
VERTEX
8
100
10
91.3130
20
66.1670
0
VERTEX
8
100
10
96.9010
20
71.7550
0
SEQEND
0
POLYLINE
8
100
66
1
40
0.1778
41
0.1778
0
VERTEX
8
100
10
31.2420
20
70.9930
0
VERTEX
8
100
10
34.1630
20
73.9140
0
SEQEND
0
POLYLINE
8
100
66
1
40
0.1778
41
0.1778
0
VERTEX
8
100
10
30.8610
20
71.3740
0
VERTEX
8
100
10
34.2900
20
74.8030
0
SEQEND
0
POLYLINE
8
100
66
1
40
0.1778
41
0.1778
0
VERTEX
8
100
10
25.0190
20
100.5840
0
VERTEX
8
100
10
28.5750
20
104.1400
0
SEQEND
0
POLYLINE
8
100
66
1
40
0.1778
41
0.1778
0
VERTEX
8
100
10
24.1300
20
91.5670
0
VERTEX
8
100
10
26.7970
20
88.9000
0
SEQEND
0
POLYLINE
8
100
66
1
40
0.1778
41
0.1778
0
VERTEX
8
100
10
24.5110
20
108.9660
0
VERTEX
8
100
10
28.5750
20
113.0300
0
SEQEND
0
POLYLINE
8
100
66
1
40
0.1778
41
0.1778
0
VERTEX
8
100
10
24.1300
20
117.4750
0
VERTEX
8
100
10
28.5750
20
121.9200
0
SEQEND
0
POLYLINE
8
100
66
1
40
0.1778
41
0.1778
0
VERTEX
8
100
10
30.7340
20
83.5660
0
VERTEX
8
100
10
35.5600
20
78.7400
0
SEQEND
0
POLYLINE
8
100
66
1
40
1.2700
41
1.2700
0
VERTEX
8
100
10
124.0790
20
72.3900
0
VERTEX
8
100
10
132.7150
20
63.7540
0
SEQEND
0
POLYLINE
8
100
66
1
40
1.2700
41
1.2700
0
VERTEX
8
100
10
124.0790
20
89.9160
0
VERTEX
8
100
10
132.3340
20
98.1710
0
SEQEND
0
POLYLINE
8
100
66
1
40
1.2700
41
1.2700
0
VERTEX
8
100
10
124.5870
20
89.1540
0
VERTEX
8
100
10
131.4450
20
96.0120
0
SEQEND
0
POLYLINE
8
100
66
1
40
1.2700
41
1.2700
0
VERTEX
8
100
10
125.7300
20
89.0270
0
VERTEX
8
100
10
131.0640
20
94.3610
0
SEQEND
0
POLYLINE
8
100
66
1
40
1.2700
41
1.2700
0
VERTEX
8
100
10
127.1270
20
88.9000
0
VERTEX
8
100
10
131.4450
20
93.2180
0
SEQEND
0
POLYLINE
8
100
66
1
40
1.2700
41
1.2700
0
VERTEX
8
100
10
128.5240
20
89.0270
0
VERTEX
8
100
10
131.9530
20
92.4560
0
SEQEND
0
POLYLINE
8
100
66
1
40
0.1778
41
0.1778
0
VERTEX
8
100
10
30.2260
20
44.4500
0
VERTEX
8
100
10
33.6550
20
41.0210
0
SEQEND
0
POLYLINE
8
100
66
1
40
0.1778
41
0.1778
0
VERTEX
8
100
10
29.8450
20
60.0710
0
VERTEX
8
100
10
32.5120
20
62.7380
0
SEQEND
0
POLYLINE
8
100
66
1
40
0.7620
41
0.7620
0
VERTEX
8
100
10
91.1860
20
117.4750
0
VERTEX
8
100
10
92.2020
20
116.4590
0
SEQEND
0
POLYLINE
8
100
66
1
40
0.7620
41
0.7620
0
VERTEX
8
100
10
91.5670
20
120.0150
0
VERTEX
8
100
10
92.4560
20
120.9040
0
SEQEND
0
POLYLINE
8
100
66
1
40
0.7620
41
0.7620
0
VERTEX
8
100
10
92.2020
20
114.0460
0
VERTEX
8
100
10
93.7260
20
112.5220
0
SEQEND
0
POLYLINE
8
100
66
1
40
0.1778
41
0.1778
0
VERTEX
8
100
10
41.2750
20
52.0700
0
VERTEX
8
100
10
44.7040
20
55.4990
0
SEQEND
0
POLYLINE
8
100
66
1
40
0.1778
41
0.1778
0
VERTEX
8
100
10
41.0210
20
51.0540
0
VERTEX
8
100
10
45.3390
20
55.3720
0
SEQEND
0
ARC
8
100
10
57.7850
20
28.1940
39
0.4064
40
2.0320
50
0.000
51
90.000
0
ARC
8
100
10
57.7850
20
28.1940
39
0.4064
40
2.0320
50
270.000
51
0.000
0
ARC
8
100
10
50.4190
20
32.2580
39
0.4064
40
2.0320
50
90.000
51
180.000
0
ARC
8
100
10
50.4190
20
32.2580
39
0.4064
40
2.0320
50
180.000
51
270.000
0
ARC
8
100
10
65.6590
20
30.3530
39
0.4064
40
2.5400
50
180.000
51
270.000
0
ARC
8
100
10
60.5790
20
38.2270
39
0.4064
40
2.5400
50
0.000
51
90.000
0
ARC
8
100
10
31.1150
20
28.7020
39
0.4064
40
2.5400
50
180.000
51
270.000
0
ARC
8
100
10
31.1150
20
35.3568
39
0.4064
40
2.5400
50
90.000
51
180.000
0
ARC
8
100
10
117.4242
20
44.7040
39
0.4064
40
2.5400
50
0.000
51
90.000
0
ARC
8
100
10
106.6800
20
49.7840
39
0.4064
40
2.5400
50
180.000
51
270.000
0
ARC
8
100
10
118.7450
20
121.4120
39
0.4064
40
2.5400
50
0.000
51
90.000
0
ARC
8
100
10
106.6800
20
119.3800
39
0.4064
40
2.5400
50
90.000
51
180.000
0
ARC
8
100
10
101.6000
20
79.4258
39
0.4064
40
2.5400
50
270.000
51
0.000
0
ARC
8
100
10
101.6000
20
73.0250
39
0.4064
40
2.5400
50
0.000
51
90.000
0
ARC
8
100
10
75.4380
20
30.4800
39
0.4064
40
2.5400
50
90.000
51
180.000
0
ARC
8
100
10
70.3580
20
30.4800
39
0.4064
40
2.5400
50
270.000
51
0.000
0
ARC
8
100
10
11.4300
20
53.3400
39
0.2540
40
1.2700
50
0.000
51
90.000
0
ARC
8
100
10
11.4300
20
99.0600
39
0.2540
40
1.2700
50
270.000
51
0.000
0
ARC
8
100
10
134.6200
20
134.6200
39
0.2540
40
5.0800
50
0.000
51
90.000
0
ARC
8
100
10
17.7800
20
17.7800
39
0.2540
40
5.0800
50
180.000
51
270.000
0
ARC
8
100
10
17.7800
20
134.6200
39
0.2540
40
5.0800
50
90.000
51
180.000
0
TEXT
8
100
40
1.5240
1
MIDDLE COPPER, LAYER 3
7
standard
50
0.000
10
149.8600
20
121.9200
0
ARC
8
100
10
11.4300
20
53.3400
39
0.2540
40
1.2700
50
0.000
51
90.000
0
ARC
8
100
10
11.4300
20
99.0600
39
0.2540
40
1.2700
50
270.000
51
0.000
0
ARC
8
100
10
134.6200
20
134.6200
39
0.2540
40
5.0800
50
0.000
51
90.000
0
ARC
8
100
10
134.6200
20
17.7800
39
0.2540
40
5.0800
50
270.000
51
0.000
0
ARC
8
100
10
17.7800
20
17.7800
39
0.2540
40
5.0800
50
180.000
51
270.000
0
ARC
8
100
10
17.7800
20
134.6200
39
0.2540
40
5.0800
50
90.000
51
180.000
0
TEXT
8
100
40
1.5240
1
BOTTOM COPPER, LAYER 4
7
standard
50
0.000
10
149.8600
20
119.3800
0
POLYLINE
8
100
66
1
40
0.7620
41
0.7620
0
VERTEX
8
100
10
91.6940
20
53.0860
0
VERTEX
8
100
10
94.6150
20
50.1650
0
SEQEND
0
POLYLINE
8
100
66
1
40
0.7620
41
0.7620
0
VERTEX
8
100
10
15.4940
20
55.8800
0
VERTEX
8
100
10
16.6370
20
54.7370
0
SEQEND
0
POLYLINE
8
100
66
1
40
0.7620
41
0.7620
0
VERTEX
8
100
10
25.0190
20
54.7370
0
VERTEX
8
100
10
26.7970
20
52.9590
0
SEQEND
0
POLYLINE
8
100
66
1
40
0.7620
41
0.7620
0
VERTEX
8
100
10
108.7120
20
120.9040
0
VERTEX
8
100
10
113.9190
20
115.6970
0
SEQEND
0
POLYLINE
8
100
66
1
40
0.7620
41
0.7620
0
VERTEX
8
100
10
50.8000
20
109.2200
0
VERTEX
8
100
10
53.3400
20
106.6800
0
SEQEND
0
POLYLINE
8
100
66
1
40
0.7620
41
0.7620
0
VERTEX
8
100
10
10.7950
20
93.3450
0
VERTEX
8
100
10
11.4300
20
93.9800
0
SEQEND
0
POLYLINE
8
100
66
1
40
0.7620
41
0.7620
0
VERTEX
8
100
10
11.4300
20
93.9800
0
VERTEX
8
100
10
12.7000
20
95.2500
0
SEQEND
0
POLYLINE
8
100
66
1
40
0.7620
41
0.7620
0
VERTEX
8
100
10
19.6850
20
95.2500
0
VERTEX
8
100
10
22.2250
20
92.7100
0
SEQEND
0
POLYLINE
8
100
66
1
40
0.7620
41
0.7620
0
VERTEX
8
100
10
55.8800
20
92.7100
0
VERTEX
8
100
10
57.7850
20
94.6150
0
SEQEND
0
POLYLINE
8
100
66
1
40
0.7620
41
0.7620
0
VERTEX
8
100
10
57.7850
20
100.3300
0
VERTEX
8
100
10
62.2300
20
104.7750
0
SEQEND
0
POLYLINE
8
100
66
1
40
0.7620
41
0.7620
0
VERTEX
8
100
10
71.7550
20
104.7750
0
VERTEX
8
100
10
75.5650
20
108.5850
0
SEQEND
0
POLYLINE
8
100
66
1
40
0.7620
41
0.7620
0
VERTEX
8
100
10
76.2000
20
102.8700
0
VERTEX
8
100
10
78.7400
20
105.4100
0
SEQEND
0
POLYLINE
8
100
66
1
40
0.7620
41
0.7620
0
VERTEX
8
100
10
59.6900
20
99.0600
0
VERTEX
8
100
10
63.5000
20
102.8700
0
SEQEND
0
POLYLINE
8
100
66
1
40
0.7620
41
0.7620
0
VERTEX
8
100
10
57.1500
20
90.8050
0
VERTEX
8
100
10
59.6900
20
93.3450
0
SEQEND
0
POLYLINE
8
100
66
1
40
0.7620
41
0.7620
0
VERTEX
8
100
10
17.7800
20
86.3600
0
VERTEX
8
100
10
22.2250
20
90.8050
0
SEQEND
0
POLYLINE
8
100
66
1
40
1.2700
41
1.2700
0
VERTEX
8
100
10
124.0790
20
89.9160
0
VERTEX
8
100
10
133.2230
20
99.0600
0
SEQEND
0
POLYLINE
8
100
66
1
40
1.2700
41
1.2700
0
VERTEX
8
100
10
124.5870
20
89.2810
0
VERTEX
8
100
10
131.4450
20
96.1390
0
SEQEND
0
POLYLINE
8
100
66
1
40
1.2700
41
1.2700
0
VERTEX
8
100
10
125.3490
20
89.1540
0
VERTEX
8
100
10
133.0960
20
96.9010
0
SEQEND
0
POLYLINE
8
100
66
1
40
1.2700
41
1.2700
0
VERTEX
8
100
10
126.3650
20
89.0270
0
VERTEX
8
100
10
131.9530
20
94.6150
0
SEQEND
0
POLYLINE
8
100
66
1
40
1.2700
41
1.2700
0
VERTEX
8
100
10
127.5080
20
89.0270
0
VERTEX
8
100
10
131.8260
20
93.3450
0
SEQEND
0
POLYLINE
8
100
66
1
40
1.2700
41
1.2700
0
VERTEX
8
100
10
128.6510
20
89.0270
0
VERTEX
8
100
10
131.4450
20
91.8210
0
SEQEND
0
POLYLINE
8
100
66
1
40
1.2700
41
1.2700
0
VERTEX
8
100
10
129.9210
20
89.0270
0
VERTEX
8
100
10
131.3180
20
90.4240
0
SEQEND
0
POLYLINE
8
100
66
1
40
1.2700
41
1.2700
0
VERTEX
8
100
10
124.0790
20
72.5170
0
VERTEX
8
100
10
131.9530
20
64.6430
0
SEQEND
0
POLYLINE
8
100
66
1
40
0.1778
41
0.1778
0
VERTEX
8
100
10
17.5260
20
60.1980
0
VERTEX
8
100
10
20.1930
20
62.8650
0
SEQEND
0
POLYLINE
8
100
66
1
40
0.1778
41
0.1778
0
VERTEX
8
100
10
58.5470
20
89.4080
0
VERTEX
8
100
10
61.5950
20
92.4560
0
SEQEND
0
POLYLINE
8
100
66
1
40
0.1778
41
0.1778
0
VERTEX
8
100
10
61.8490
20
85.4710
0
VERTEX
8
100
10
65.4050
20
89.0270
0
SEQEND
0
POLYLINE
8
100
66
1
40
0.1778
41
0.1778
0
VERTEX
8
100
10
58.5470
20
70.9930
0
VERTEX
8
100
10
66.0400
20
78.4860
0
SEQEND
0
POLYLINE
8
100
66
1
40
0.1778
41
0.1778
0
VERTEX
8
100
10
66.0400
20
84.3280
0
VERTEX
8
100
10
70.6120
20
88.9000
0
SEQEND
0
POLYLINE
8
100
66
1
40
0.1778
41
0.1778
0
VERTEX
8
100
10
60.7060
20
82.0420
0
VERTEX
8
100
10
69.2150
20
90.5510
0
SEQEND
0
POLYLINE
8
100
66
1
40
0.7620
41
0.7620
0
VERTEX
8
100
10
15.4940
20
61.4680
0
VERTEX
8
100
10
19.5580
20
65.5320
0
SEQEND
0
ARC
8
100
10
17.7800
20
134.6200
39
0.2540
40
5.0800
50
90.000
51
180.000
0
ARC
8
100
10
17.7800
20
17.7800
39
0.2540
40
5.0800
50
180.000
51
270.000
0
ARC
8
100
10
134.6200
20
17.7800
39
0.2540
40
5.0800
50
270.000
51
0.000
0
ARC
8
100
10
134.6200
20
134.6200
39
0.2540
40
5.0800
50
0.000
51
90.000
0
ARC
8
100
10
11.4300
20
99.0600
39
0.2540
40
1.2700
50
270.000
51
0.000
0
ARC
8
100
10
11.4300
20
53.3400
39
0.2540
40
1.2700
50
0.000
51
90.000
0
TEXT
8
100
40
1.5240
1
RC
7
standard
50
0.000
10
114.6810
20
50.5460
0
TEXT
8
100
40
1.5240
1
RD
7
standard
50
0.000
10
124.7140
20
106.6800
0
TEXT
8
100
40
1.5240
1
RB
7
standard
50
0.000
10
109.2200
20
24.8920
0
TEXT
8
100
40
1.5240
1
RA
7
standard
50
0.000
10
76.2000
20
26.4160
0
TEXT
8
100
40
1.5240
1
Y1
7
standard
50
0.000
10
106.5530
20
43.5610
0
TEXT
8
100
40
1.5240
1
Y2
7
standard
50
0.000
10
104.7750
20
34.2900
0
TEXT
8
100
40
1.5240
1
TOP SILKSCREEN
7
standard
50
0.000
10
149.8600
20
129.5400
0
TEXT
8
100
40
1.5240
1
BPA
7
standard
50
0.000
10
90.4240
20
93.0910
0
TEXT
8
100
40
1.5240
1
BPEN
7
standard
50
0.000
10
79.2480
20
103.5050
0
TEXT
8
100
40
1.5240
1
RST
7
standard
50
0.000
10
34.0360
20
80.0100
0
TEXT
8
100
40
1.5240
1
DCK
7
standard
50
0.000
10
49.4030
20
89.4080
0
TEXT
8
100
40
1.5240
1
RCK
7
standard
50
0.000
10
44.9580
20
96.9010
0
TEXT
8
100
40
1.5240
1
1
7
standard
50
0.000
10
83.8200
20
91.0590
0
TEXT
8
100
40
1.5240
1
LOGIC PROGRAM
7
standard
50
0.000
10
64.7700
20
97.4090
0
TEXT
8
100
40
1.5240
1
BP
7
standard
50
0.000
10
115.3160
20
97.1550
0
TEXT
8
100
40
1.5240
1
BPM
7
standard
50
0.000
10
104.0130
20
97.0280
0
TEXT
8
100
40
1.5240
1
X1
7
standard
50
0.000
10
26.4160
20
48.7680
0
TEXT
8
100
40
1.5240
1
X2
7
standard
50
0.000
10
39.8780
20
48.8950
0
TEXT
8
100
40
1.5240
1
5V
7
standard
50
0.000
10
93.7260
20
42.2910
0
TEXT
8
100
40
1.5240
1
Z2
7
standard
50
0.000
10
116.3320
20
37.7190
0
TEXT
8
100
40
1.5240
1
Z1
7
standard
50
0.000
10
116.3320
20
42.6720
0
TEXT
8
100
40
1.5240
1
W1
7
standard
50
0.000
10
95.6310
20
68.3260
0
TEXT
8
100
40
1.5240
1
W2
7
standard
50
0.000
10
98.6790
20
80.0100
0
TEXT
8
100
40
1.5240
1
3V3
7
standard
50
0.000
10
57.7850
20
66.1670
0
TEXT
8
100
40
1.5240
1
TRANSMIT
7
standard
50
0.000
10
70.8660
20
64.8970
0
TEXT
8
100
40
1.5240
1
OUTPUT
7
standard
50
0.000
10
72.0090
20
61.9760
0
TEXT
8
100
40
2.0320
1
COMMAND TRANSMITTER
7
standard
50
0.000
10
66.6750
20
55.2450
0
TEXT
8
100
40
1.2700
1
A302901B
7
standard
50
0.000
10
73.6600
20
51.4350
0
TEXT
8
100
40
1.2700
1
PCB:
7
standard
50
0.000
10
67.3100
20
51.4350
0
TEXT
8
100
40
1.2700
1
ASSY:
7
standard
50
0.000
10
85.7250
20
51.4350
0
TEXT
8
100
40
1.2700
1
A3029C
7
standard
50
0.000
10
93.3450
20
51.4350
0
TEXT
8
100
40
1.2700
1
(C) KSH, OSI INC.
7
standard
50
0.000
10
67.3100
20
46.3550
0
TEXT
8
100
40
1.2700
1
16-JUN-15
7
standard
50
0.000
10
89.5350
20
46.3550
0
TEXT
8
100
40
1.2700
1
OPEN SOURCE INSTRUMENTS INC.
7
standard
50
0.000
10
67.3100
20
48.8950
0
TEXT
8
100
40
1.5240
1
POWER
7
standard
50
0.000
10
33.4010
20
118.8720
0
TEXT
8
100
40
1.5240
1
BOOST
7
standard
50
0.000
10
33.4010
20
109.9820
0
TEXT
8
100
40
1.5240
1
ACTIVE
7
standard
50
0.000
10
33.1470
20
101.0920
0
TEXT
8
100
40
1.5240
1
TRANSMIT
7
standard
50
0.000
10
33.0200
20
92.3290
0
TEXT
8
100
40
1.5240
1
5V
7
standard
50
0.000
10
14.4780
20
77.0890
0
TEXT
8
100
40
1.5240
1
5V
7
standard
50
0.000
10
43.6880
20
49.2760
0
POLYLINE
8
100
66
1
40
0.1778
41
0.1778
0
VERTEX
8
100
10
33.9598
20
82.0166
0
VERTEX
8
100
10
38.1762
20
82.0166
0
SEQEND
0
POLYLINE
8
100
66
1
40
0.2540
41
0.2540
0
VERTEX
8
100
10
81.9150
20
93.5990
0
VERTEX
8
100
10
81.9150
20
96.1390
0
SEQEND
0
POLYLINE
8
100
66
1
40
0.2540
41
0.2540
0
VERTEX
8
100
10
64.1350
20
93.5990
0
VERTEX
8
100
10
64.1350
20
96.1390
0
SEQEND
0
POLYLINE
8
100
66
1
40
0.2540
41
0.2540
0
VERTEX
8
100
10
64.1350
20
93.5990
0
VERTEX
8
100
10
84.4550
20
93.5990
0
SEQEND
0
POLYLINE
8
100
66
1
40
0.2540
41
0.2540
0
VERTEX
8
100
10
84.4550
20
93.5990
0
VERTEX
8
100
10
84.4550
20
96.1390
0
SEQEND
0
POLYLINE
8
100
66
1
40
0.2540
41
0.2540
0
VERTEX
8
100
10
64.1350
20
96.1390
0
VERTEX
8
100
10
84.4550
20
96.1390
0
SEQEND
0
POLYLINE
8
100
66
1
40
0.4064
41
0.4064
0
VERTEX
8
100
10
66.0400
20
58.4200
0
VERTEX
8
100
10
100.9650
20
58.4200
0
SEQEND
0
POLYLINE
8
100
66
1
40
0.4064
41
0.4064
0
VERTEX
8
100
10
100.9650
20
45.7200
0
VERTEX
8
100
10
100.9650
20
58.4200
0
SEQEND
0
POLYLINE
8
100
66
1
40
0.4064
41
0.4064
0
VERTEX
8
100
10
66.0400
20
45.7200
0
VERTEX
8
100
10
100.9650
20
45.7200
0
SEQEND
0
POLYLINE
8
100
66
1
40
0.4064
41
0.4064
0
VERTEX
8
100
10
66.0400
20
45.7200
0
VERTEX
8
100
10
66.0400
20
58.4200
0
SEQEND
0
POLYLINE
8
100
66
1
40
0.2540
41
0.2540
0
VERTEX
8
100
10
66.0400
20
53.3400
0
VERTEX
8
100
10
100.9650
20
53.3400
0
SEQEND
0
POLYLINE
8
100
66
1
40
0.2540
41
0.2540
0
VERTEX
8
100
10
66.0400
20
50.8000
0
VERTEX
8
100
10
100.9650
20
50.8000
0
SEQEND
0
POLYLINE
8
100
66
1
40
0.2540
41
0.2540
0
VERTEX
8
100
10
66.0400
20
48.2600
0
VERTEX
8
100
10
100.9650
20
48.2600
0
SEQEND
0
POLYLINE
8
100
66
1
40
0.2540
41
0.2540
0
VERTEX
8
100
10
83.8200
20
50.8000
0
VERTEX
8
100
10
83.8200
20
53.3400
0
SEQEND
0
POLYLINE
8
100
66
1
40
0.2540
41
0.2540
0
VERTEX
8
100
10
86.9950
20
45.7200
0
VERTEX
8
100
10
86.9950
20
48.2600
0
SEQEND
0
ARC
8
100
10
115.8240
20
51.3080
39
0.2540
40
1.9050
50
0.000
51
90.000
0
ARC
8
100
10
115.8240
20
51.3080
39
0.2540
40
1.9050
50
90.000
51
180.000
0
ARC
8
100
10
115.8240
20
51.3080
39
0.2540
40
1.9050
50
180.000
51
270.000
0
ARC
8
100
10
115.8240
20
51.3080
39
0.2540
40
1.9050
50
270.000
51
0.000
0
ARC
8
100
10
125.9840
20
107.4420
39
0.2540
40
1.9050
50
0.000
51
90.000
0
ARC
8
100
10
125.9840
20
107.4420
39
0.2540
40
1.9050
50
90.000
51
180.000
0
ARC
8
100
10
125.9840
20
107.4420
39
0.2540
40
1.9050
50
180.000
51
270.000
0
ARC
8
100
10
125.9840
20
107.4420
39
0.2540
40
1.9050
50
270.000
51
0.000
0
ARC
8
100
10
110.4900
20
25.6540
39
0.2540
40
1.9050
50
0.000
51
90.000
0
ARC
8
100
10
110.4900
20
25.6540
39
0.2540
40
1.9050
50
90.000
51
180.000
0
ARC
8
100
10
110.4900
20
25.6540
39
0.2540
40
1.9050
50
180.000
51
270.000
0
ARC
8
100
10
110.4900
20
25.6540
39
0.2540
40
1.9050
50
270.000
51
0.000
0
ARC
8
100
10
77.4700
20
27.1780
39
0.2540
40
1.9050
50
0.000
51
90.000
0
ARC
8
100
10
77.4700
20
27.1780
39
0.2540
40
1.9050
50
90.000
51
180.000
0
ARC
8
100
10
77.4700
20
27.1780
39
0.2540
40
1.9050
50
180.000
51
270.000
0
ARC
8
100
10
77.4700
20
27.1780
39
0.2540
40
1.9050
50
270.000
51
0.000
0
ARC
8
100
10
107.4420
20
41.9100
39
0.2540
40
1.1430
50
0.000
51
90.000
0
ARC
8
100
10
107.4420
20
41.9100
39
0.2540
40
1.1430
50
90.000
51
180.000
0
ARC
8
100
10
107.4420
20
41.9100
39
0.2540
40
1.1430
50
180.000
51
270.000
0
ARC
8
100
10
107.4420
20
41.9100
39
0.2540
40
1.1430
50
270.000
51
0.000
0
ARC
8
100
10
106.2990
20
37.4650
39
0.2540
40
1.1430
50
0.000
51
90.000
0
ARC
8
100
10
106.2990
20
37.4650
39
0.2540
40
1.1430
50
90.000
51
180.000
0
ARC
8
100
10
106.2990
20
37.4650
39
0.2540
40
1.1430
50
180.000
51
270.000
0
ARC
8
100
10
106.2990
20
37.4650
39
0.2540
40
1.1430
50
270.000
51
0.000
0
ARC
8
100
10
92.0750
20
96.6470
39
0.2540
40
1.1430
50
0.000
51
90.000
0
ARC
8
100
10
92.0750
20
96.6470
39
0.2540
40
1.1430
50
90.000
51
180.000
0
ARC
8
100
10
92.0750
20
96.6470
39
0.2540
40
1.1430
50
180.000
51
270.000
0
ARC
8
100
10
92.0750
20
96.6470
39
0.2540
40
1.1430
50
270.000
51
0.000
0
ARC
8
100
10
82.6770
20
106.5530
39
0.2540
40
1.1430
50
0.000
51
90.000
0
ARC
8
100
10
82.6770
20
106.5530
39
0.2540
40
1.1430
50
90.000
51
180.000
0
ARC
8
100
10
82.6770
20
106.5530
39
0.2540
40
1.1430
50
180.000
51
270.000
0
ARC
8
100
10
82.6770
20
106.5530
39
0.2540
40
1.1430
50
270.000
51
0.000
0
ARC
8
100
10
35.7886
20
78.5368
39
0.2540
40
1.1430
50
0.000
51
90.000
0
ARC
8
100
10
35.7886
20
78.5368
39
0.2540
40
1.1430
50
90.000
51
180.000
0
ARC
8
100
10
35.7886
20
78.5368
39
0.2540
40
1.1430
50
180.000
51
270.000
0
ARC
8
100
10
35.7886
20
78.5368
39
0.2540
40
1.1430
50
270.000
51
0.000
0
ARC
8
100
10
51.0540
20
87.6300
39
0.2540
40
1.1430
50
0.000
51
90.000
0
ARC
8
100
10
51.0540
20
87.6300
39
0.2540
40
1.1430
50
90.000
51
180.000
0
ARC
8
100
10
51.0540
20
87.6300
39
0.2540
40
1.1430
50
180.000
51
270.000
0
ARC
8
100
10
51.0540
20
87.6300
39
0.2540
40
1.1430
50
270.000
51
0.000
0
ARC
8
100
10
43.0530
20
97.9170
39
0.2540
40
1.1430
50
0.000
51
90.000
0
ARC
8
100
10
43.0530
20
97.9170
39
0.2540
40
1.1430
50
90.000
51
180.000
0
ARC
8
100
10
43.0530
20
97.9170
39
0.2540
40
1.1430
50
180.000
51
270.000
0
ARC
8
100
10
43.0530
20
97.9170
39
0.2540
40
1.1430
50
270.000
51
0.000
0
ARC
8
100
10
53.3400
20
103.6320
39
0.7620
40
0.3810
50
0.000
51
90.000
0
ARC
8
100
10
53.3400
20
103.6320
39
0.7620
40
0.3810
50
90.000
51
180.000
0
ARC
8
100
10
53.3400
20
103.6320
39
0.7620
40
0.3810
50
180.000
51
270.000
0
ARC
8
100
10
53.3400
20
103.6320
39
0.7620
40
0.3810
50
270.000
51
0.000
0
ARC
8
100
10
45.8470
20
102.3620
39
0.5080
40
0.2540
50
0.000
51
90.000
0
ARC
8
100
10
45.8470
20
102.3620
39
0.5080
40
0.2540
50
90.000
51
180.000
0
ARC
8
100
10
45.8470
20
102.3620
39
0.5080
40
0.2540
50
180.000
51
270.000
0
ARC
8
100
10
45.8470
20
102.3620
39
0.5080
40
0.2540
50
270.000
51
0.000
0
ARC
8
100
10
113.9190
20
97.7900
39
0.2540
40
1.1430
50
0.000
51
90.000
0
ARC
8
100
10
113.9190
20
97.7900
39
0.2540
40
1.1430
50
90.000
51
180.000
0
ARC
8
100
10
113.9190
20
97.7900
39
0.2540
40
1.1430
50
180.000
51
270.000
0
ARC
8
100
10
113.9190
20
97.7900
39
0.2540
40
1.1430
50
270.000
51
0.000
0
ARC
8
100
10
109.7280
20
97.7900
39
0.2540
40
1.1430
50
0.000
51
90.000
0
ARC
8
100
10
109.7280
20
97.7900
39
0.2540
40
1.1430
50
90.000
51
180.000
0
ARC
8
100
10
109.7280
20
97.7900
39
0.2540
40
1.1430
50
180.000
51
270.000
0
ARC
8
100
10
109.7280
20
97.7900
39
0.2540
40
1.1430
50
270.000
51
0.000
0
ARC
8
100
10
27.5590
20
46.8630
39
0.2540
40
1.1430
50
0.000
51
90.000
0
ARC
8
100
10
27.5590
20
46.8630
39
0.2540
40
1.1430
50
90.000
51
180.000
0
ARC
8
100
10
27.5590
20
46.8630
39
0.2540
40
1.1430
50
180.000
51
270.000
0
ARC
8
100
10
27.5590
20
46.8630
39
0.2540
40
1.1430
50
270.000
51
0.000
0
ARC
8
100
10
41.0210
20
46.8630
39
0.2540
40
1.1430
50
0.000
51
90.000
0
ARC
8
100
10
41.0210
20
46.8630
39
0.2540
40
1.1430
50
90.000
51
180.000
0
ARC
8
100
10
41.0210
20
46.8630
39
0.2540
40
1.1430
50
180.000
51
270.000
0
ARC
8
100
10
41.0210
20
46.8630
39
0.2540
40
1.1430
50
270.000
51
0.000
0
ARC
8
100
10
94.6150
20
40.6400
39
0.2540
40
1.1430
50
0.000
51
90.000
0
ARC
8
100
10
94.6150
20
40.6400
39
0.2540
40
1.1430
50
90.000
51
180.000
0
ARC
8
100
10
94.6150
20
40.6400
39
0.2540
40
1.1430
50
180.000
51
270.000
0
ARC
8
100
10
94.6150
20
40.6400
39
0.2540
40
1.1430
50
270.000
51
0.000
0
ARC
8
100
10
56.1340
20
66.8020
39
0.2540
40
1.1430
50
0.000
51
90.000
0
ARC
8
100
10
56.1340
20
66.8020
39
0.2540
40
1.1430
50
90.000
51
180.000
0
ARC
8
100
10
56.1340
20
66.8020
39
0.2540
40
1.1430
50
180.000
51
270.000
0
ARC
8
100
10
56.1340
20
66.8020
39
0.2540
40
1.1430
50
270.000
51
0.000
0
ARC
8
100
10
117.2210
20
36.0680
39
0.2540
40
1.1430
50
0.000
51
90.000
0
ARC
8
100
10
117.2210
20
36.0680
39
0.2540
40
1.1430
50
90.000
51
180.000
0
ARC
8
100
10
117.2210
20
36.0680
39
0.2540
40
1.1430
50
180.000
51
270.000
0
ARC
8
100
10
117.2210
20
36.0680
39
0.2540
40
1.1430
50
270.000
51
0.000
0
ARC
8
100
10
117.2210
20
41.0210
39
0.2540
40
1.1430
50
0.000
51
90.000
0
ARC
8
100
10
117.2210
20
41.0210
39
0.2540
40
1.1430
50
90.000
51
180.000
0
ARC
8
100
10
117.2210
20
41.0210
39
0.2540
40
1.1430
50
180.000
51
270.000
0
ARC
8
100
10
117.2210
20
41.0210
39
0.2540
40
1.1430
50
270.000
51
0.000
0
ARC
8
100
10
96.9010
20
71.7550
39
0.2540
40
1.1430
50
0.000
51
90.000
0
ARC
8
100
10
96.9010
20
71.7550
39
0.2540
40
1.1430
50
90.000
51
180.000
0
ARC
8
100
10
96.9010
20
71.7550
39
0.2540
40
1.1430
50
180.000
51
270.000
0
ARC
8
100
10
96.9010
20
71.7550
39
0.2540
40
1.1430
50
270.000
51
0.000
0
ARC
8
100
10
96.9010
20
80.6450
39
0.2540
40
1.1430
50
0.000
51
90.000
0
ARC
8
100
10
96.9010
20
80.6450
39
0.2540
40
1.1430
50
90.000
51
180.000
0
ARC
8
100
10
96.9010
20
80.6450
39
0.2540
40
1.1430
50
180.000
51
270.000
0
ARC
8
100
10
96.9010
20
80.6450
39
0.2540
40
1.1430
50
270.000
51
0.000
0
ARC
8
100
10
19.5580
20
77.7240
39
0.2540
40
1.1430
50
0.000
51
90.000
0
ARC
8
100
10
19.5580
20
77.7240
39
0.2540
40
1.1430
50
90.000
51
180.000
0
ARC
8
100
10
19.5580
20
77.7240
39
0.2540
40
1.1430
50
180.000
51
270.000
0
ARC
8
100
10
19.5580
20
77.7240
39
0.2540
40
1.1430
50
270.000
51
0.000
0
ARC
8
100
10
44.9580
20
47.6250
39
0.2540
40
1.1430
50
0.000
51
90.000
0
ARC
8
100
10
44.9580
20
47.6250
39
0.2540
40
1.1430
50
90.000
51
180.000
0
ARC
8
100
10
44.9580
20
47.6250
39
0.2540
40
1.1430
50
180.000
51
270.000
0
ARC
8
100
10
44.9580
20
47.6250
39
0.2540
40
1.1430
50
270.000
51
0.000
0
TEXT
8
100
40
1.5240
1
BOTTOM SILKSCREEN
7
standard
50
0.000
10
149.8600
20
116.8400
0
TEXT
8
100
40
1.5240
1
1
7
standard
50
0.000
10
83.1850
20
91.0590
71
2
0
POLYLINE
8
100
66
1
40
0.2540
41
0.2540
0
VERTEX
8
100
10
29.2100
20
129.5400
0
VERTEX
8
100
10
123.1900
20
129.5400
0
SEQEND
0
POLYLINE
8
100
66
1
40
0.2540
41
0.2540
0
VERTEX
8
100
10
29.2100
20
22.8600
0
VERTEX
8
100
10
123.1900
20
22.8600
0
SEQEND
0
POLYLINE
8
100
66
1
40
0.2540
41
0.2540
0
VERTEX
8
100
10
11.4300
20
100.3300
0
VERTEX
8
100
10
11.4300
20
134.6200
0
SEQEND
0
POLYLINE
8
100
66
1
40
0.2540
41
0.2540
0
VERTEX
8
100
10
17.7800
20
140.9700
0
VERTEX
8
100
10
134.6200
20
140.9700
0
SEQEND
0
POLYLINE
8
100
66
1
40
0.2540
41
0.2540
0
VERTEX
8
100
10
140.9700
20
17.7800
0
VERTEX
8
100
10
140.9700
20
134.6200
0
SEQEND
0
POLYLINE
8
100
66
1
40
0.2540
41
0.2540
0
VERTEX
8
100
10
17.7800
20
11.4300
0
VERTEX
8
100
10
134.6200
20
11.4300
0
SEQEND
0
POLYLINE
8
100
66
1
40
0.2540
41
0.2540
0
VERTEX
8
100
10
11.4300
20
17.7800
0
VERTEX
8
100
10
11.4300
20
52.0700
0
SEQEND
0
POLYLINE
8
100
66
1
40
0.2540
41
0.2540
0
VERTEX
8
100
10
146.0500
20
6.3500
0
VERTEX
8
100
10
146.0500
20
146.0500
0
SEQEND
0
POLYLINE
8
100
66
1
40
0.2540
41
0.2540
0
VERTEX
8
100
10
6.3500
20
146.0500
0
VERTEX
8
100
10
146.0500
20
146.0500
0
SEQEND
0
POLYLINE
8
100
66
1
40
0.2540
41
0.2540
0
VERTEX
8
100
10
129.5400
20
29.2100
0
VERTEX
8
100
10
129.5400
20
123.1900
0
SEQEND
0
POLYLINE
8
100
66
1
40
0.2540
41
0.2540
0
VERTEX
8
100
10
6.3500
20
100.3300
0
VERTEX
8
100
10
15.2400
20
100.3300
0
SEQEND
0
POLYLINE
8
100
66
1
40
0.2540
41
0.2540
0
VERTEX
8
100
10
12.7000
20
100.3300
0
VERTEX
8
100
10
22.8600
20
100.3300
0
SEQEND
0
POLYLINE
8
100
66
1
40
0.2540
41
0.2540
0
VERTEX
8
100
10
6.3500
20
52.0700
0
VERTEX
8
100
10
22.8600
20
52.0700
0
SEQEND
0
POLYLINE
8
100
66
1
40
0.2540
41
0.2540
0
VERTEX
8
100
10
22.8600
20
29.2100
0
VERTEX
8
100
10
22.8600
20
52.0700
0
SEQEND
0
POLYLINE
8
100
66
1
40
0.2540
41
0.2540
0
VERTEX
8
100
10
22.8600
20
100.3300
0
VERTEX
8
100
10
22.8600
20
123.1900
0
SEQEND
0
POLYLINE
8
100
66
1
40
0.2540
41
0.2540
0
VERTEX
8
100
10
6.3500
20
6.3500
0
VERTEX
8
100
10
6.3500
20
52.0700
0
SEQEND
0
POLYLINE
8
100
66
1
40
0.2540
41
0.2540
0
VERTEX
8
100
10
6.3500
20
100.3300
0
VERTEX
8
100
10
6.3500
20
146.0500
0
SEQEND
0
POLYLINE
8
100
66
1
40
0.2540
41
0.2540
0
VERTEX
8
100
10
6.3500
20
6.3500
0
VERTEX
8
100
10
146.0500
20
6.3500
0
SEQEND
0
ARC
8
100
10
29.2100
20
29.2100
39
0.2540
40
6.3500
50
180.000
51
270.000
0
ARC
8
100
10
123.1900
20
29.2100
39
0.2540
40
6.3500
50
270.000
51
0.000
0
ARC
8
100
10
123.1900
20
123.1900
39
0.2540
40
6.3500
50
0.000
51
90.000
0
ARC
8
100
10
29.2100
20
123.1900
39
0.2540
40
6.3500
50
90.000
51
180.000
0
ARC
8
100
10
17.7800
20
17.7800
39
0.2540
40
6.3500
50
180.000
51
270.000
0
ARC
8
100
10
134.6200
20
17.7800
39
0.2540
40
6.3500
50
270.000
51
0.000
0
ARC
8
100
10
134.6200
20
134.6200
39
0.2540
40
6.3500
50
0.000
51
90.000
0
ARC
8
100
10
17.7800
20
134.6200
39
0.2540
40
6.3500
50
90.000
51
180.000
0
TEXT
8
100
40
1.5240
1
GROUND PLANE, LAYER 2
7
standard
50
0.000
10
149.8600
20
124.4600
0
POLYLINE
8
100
66
1
40
0.2540
41
0.2540
0
VERTEX
8
100
10
17.7800
20
12.7000
0
VERTEX
8
100
10
134.6200
20
12.7000
0
SEQEND
0
POLYLINE
8
100
66
1
40
0.2540
41
0.2540
0
VERTEX
8
100
10
5.0800
20
54.6100
0
VERTEX
8
100
10
11.4300
20
54.6100
0
SEQEND
0
POLYLINE
8
100
66
1
40
0.2540
41
0.2540
0
VERTEX
8
100
10
5.0800
20
97.7900
0
VERTEX
8
100
10
11.4300
20
97.7900
0
SEQEND
0
POLYLINE
8
100
66
1
40
0.2540
41
0.2540
0
VERTEX
8
100
10
17.7800
20
139.7000
0
VERTEX
8
100
10
23.4950
20
139.7000
0
SEQEND
0
POLYLINE
8
100
66
1
40
0.2540
41
0.2540
0
VERTEX
8
100
10
20.9550
20
139.7000
0
VERTEX
8
100
10
134.6200
20
139.7000
0
SEQEND
0
POLYLINE
8
100
66
1
40
0.2540
41
0.2540
0
VERTEX
8
100
10
5.0800
20
54.6100
0
VERTEX
8
100
10
5.0800
20
97.7900
0
SEQEND
0
POLYLINE
8
100
66
1
40
0.2540
41
0.2540
0
VERTEX
8
100
10
12.7000
20
99.0600
0
VERTEX
8
100
10
12.7000
20
134.6200
0
SEQEND
0
POLYLINE
8
100
66
1
40
0.2540
41
0.2540
0
VERTEX
8
100
10
12.7000
20
17.7800
0
VERTEX
8
100
10
12.7000
20
53.3400
0
SEQEND
0
POLYLINE
8
100
66
1
40
0.2540
41
0.2540
0
VERTEX
8
100
10
139.7000
20
17.7800
0
VERTEX
8
100
10
139.7000
20
134.6200
0
SEQEND
0
ARC
8
100
10
17.7800
20
134.6200
39
0.2540
40
5.0800
50
90.000
51
180.000
0
ARC
8
100
10
17.7800
20
17.7800
39
0.2540
40
5.0800
50
180.000
51
270.000
0
ARC
8
100
10
134.6200
20
17.7800
39
0.2540
40
5.0800
50
270.000
51
0.000
0
ARC
8
100
10
134.6200
20
134.6200
39
0.2540
40
5.0800
50
0.000
51
90.000
0
ARC
8
100
10
11.4300
20
99.0600
39
0.2540
40
1.2700
50
270.000
51
0.000
0
ARC
8
100
10
11.4300
20
53.3400
39
0.2540
40
1.2700
50
0.000
51
90.000
0
POLYLINE
8
100
66
1
40
0.2540
41
0.2540
0
VERTEX
8
100
10
139.7000
20
17.7800
0
VERTEX
8
100
10
139.7000
20
134.6200
0
SEQEND
0
POLYLINE
8
100
66
1
40
0.2540
41
0.2540
0
VERTEX
8
100
10
17.7800
20
139.7000
0
VERTEX
8
100
10
134.6200
20
139.7000
0
SEQEND
0
POLYLINE
8
100
66
1
40
0.2540
41
0.2540
0
VERTEX
8
100
10
5.0800
20
97.7900
0
VERTEX
8
100
10
11.4300
20
97.7900
0
SEQEND
0
POLYLINE
8
100
66
1
40
0.2540
41
0.2540
0
VERTEX
8
100
10
5.0800
20
54.6100
0
VERTEX
8
100
10
11.4300
20
54.6100
0
SEQEND
0
POLYLINE
8
100
66
1
40
0.2540
41
0.2540
0
VERTEX
8
100
10
12.7000
20
99.0600
0
VERTEX
8
100
10
12.7000
20
134.6200
0
SEQEND
0
POLYLINE
8
100
66
1
40
0.2540
41
0.2540
0
VERTEX
8
100
10
12.7000
20
17.7800
0
VERTEX
8
100
10
12.7000
20
53.3400
0
SEQEND
0
POLYLINE
8
100
66
1
40
0.2540
41
0.2540
0
VERTEX
8
100
10
17.7800
20
12.7000
0
VERTEX
8
100
10
134.6200
20
12.7000
0
SEQEND
0
POLYLINE
8
100
66
1
40
0.2540
41
0.2540
0
VERTEX
8
100
10
5.0800
20
54.6100
0
VERTEX
8
100
10
5.0800
20
97.7900
0
SEQEND
0
ARC
8
100
10
11.4300
20
99.0600
39
0.2540
40
1.2700
50
270.000
51
0.000
0
ARC
8
100
10
17.7800
20
134.6200
39
0.2540
40
5.0800
50
90.000
51
180.000
0
ARC
8
100
10
134.6200
20
17.7800
39
0.2540
40
5.0800
50
270.000
51
0.000
0
ARC
8
100
10
17.7800
20
17.7800
39
0.2540
40
5.0800
50
180.000
51
270.000
0
ARC
8
100
10
11.4300
20
53.3400
39
0.2540
40
1.2700
50
0.000
51
90.000
0
ARC
8
100
10
134.6200
20
17.7800
39
0.2540
40
5.0800
50
270.000
51
0.000
0
ARC
8
100
10
134.6200
20
134.6200
39
0.2540
40
5.0800
50
0.000
51
90.000
0
POLYLINE
8
100
66
1
40
0.2540
41
0.2540
0
VERTEX
8
100
10
5.0800
20
54.6100
0
VERTEX
8
100
10
5.0800
20
97.7900
0
SEQEND
0
POLYLINE
8
100
66
1
40
0.2540
41
0.2540
0
VERTEX
8
100
10
5.0800
20
54.6100
0
VERTEX
8
100
10
5.0800
20
97.7900
0
SEQEND
0
POLYLINE
8
100
66
1
40
0.2540
41
0.2540
0
VERTEX
8
100
10
5.0800
20
54.6100
0
VERTEX
8
100
10
5.0800
20
97.7900
0
SEQEND
0
POLYLINE
8
100
66
1
40
0.7620
41
0.7620
0
VERTEX
8
100
10
10.7950
20
86.9950
0
VERTEX
8
100
10
10.7950
20
93.3450
0
SEQEND
0
POLYLINE
8
100
66
1
40
0.2540
41
0.2540
0
VERTEX
8
100
10
17.7800
20
12.7000
0
VERTEX
8
100
10
134.6200
20
12.7000
0
SEQEND
0
POLYLINE
8
100
66
1
40
0.2540
41
0.2540
0
VERTEX
8
100
10
12.7000
20
17.7800
0
VERTEX
8
100
10
12.7000
20
53.3400
0
SEQEND
0
POLYLINE
8
100
66
1
40
0.2540
41
0.2540
0
VERTEX
8
100
10
12.7000
20
99.0600
0
VERTEX
8
100
10
12.7000
20
134.6200
0
SEQEND
0
POLYLINE
8
100
66
1
40
0.2540
41
0.2540
0
VERTEX
8
100
10
17.7800
20
12.7000
0
VERTEX
8
100
10
134.6200
20
12.7000
0
SEQEND
0
POLYLINE
8
100
66
1
40
0.2540
41
0.2540
0
VERTEX
8
100
10
12.7000
20
17.7800
0
VERTEX
8
100
10
12.7000
20
53.3400
0
SEQEND
0
POLYLINE
8
100
66
1
40
0.2540
41
0.2540
0
VERTEX
8
100
10
12.7000
20
99.0600
0
VERTEX
8
100
10
12.7000
20
134.6200
0
SEQEND
0
POLYLINE
8
100
66
1
40
0.2540
41
0.2540
0
VERTEX
8
100
10
17.7800
20
12.7000
0
VERTEX
8
100
10
134.6200
20
12.7000
0
SEQEND
0
POLYLINE
8
100
66
1
40
0.2540
41
0.2540
0
VERTEX
8
100
10
12.7000
20
99.0600
0
VERTEX
8
100
10
12.7000
20
134.6200
0
SEQEND
0
POLYLINE
8
100
66
1
40
0.2540
41
0.2540
0
VERTEX
8
100
10
12.7000
20
17.7800
0
VERTEX
8
100
10
12.7000
20
53.3400
0
SEQEND
0
POLYLINE
8
100
66
1
40
0.7620
41
0.7620
0
VERTEX
8
100
10
15.4940
20
55.8800
0
VERTEX
8
100
10
15.4940
20
61.4680
0
SEQEND
0
POLYLINE
8
100
66
1
40
0.1778
41
0.1778
0
VERTEX
8
100
10
17.5260
20
55.7530
0
VERTEX
8
100
10
17.5260
20
56.5150
0
SEQEND
0
POLYLINE
8
100
66
1
40
0.1778
41
0.1778
0
VERTEX
8
100
10
17.5260
20
55.7530
0
VERTEX
8
100
10
18.4150
20
54.8640
0
SEQEND
0
POLYLINE
8
100
66
1
40
0.1778
41
0.1778
0
VERTEX
8
100
10
17.5260
20
56.5150
0
VERTEX
8
100
10
17.5260
20
60.1980
0
SEQEND
0
POLYLINE
8
100
66
1
40
0.1778
41
0.1778
0
VERTEX
8
100
10
19.4310
20
56.6420
0
VERTEX
8
100
10
19.4310
20
60.1980
0
SEQEND
0
POLYLINE
8
100
66
1
40
0.1778
41
0.1778
0
VERTEX
8
100
10
19.4310
20
56.5150
0
VERTEX
8
100
10
19.4310
20
56.6420
0
SEQEND
0
POLYLINE
8
100
66
1
40
0.7620
41
0.7620
0
VERTEX
8
100
10
19.5580
20
66.8020
0
VERTEX
8
100
10
19.5580
20
76.2000
0
SEQEND
0
POLYLINE
8
100
66
1
40
0.7620
41
0.7620
0
VERTEX
8
100
10
19.5580
20
76.2000
0
VERTEX
8
100
10
19.5580
20
77.7240
0
SEQEND
0
POLYLINE
8
100
66
1
40
0.7620
41
0.7620
0
VERTEX
8
100
10
19.5580
20
65.5320
0
VERTEX
8
100
10
19.5580
20
66.9290
0
SEQEND
0
POLYLINE
8
100
66
1
40
0.1778
41
0.1778
0
VERTEX
8
100
10
19.4310
20
60.1980
0
VERTEX
8
100
10
20.8280
20
61.5950
0
SEQEND
0
POLYLINE
8
100
66
1
40
0.1778
41
0.1778
0
VERTEX
8
100
10
21.5900
20
56.5150
0
VERTEX
8
100
10
21.5900
20
58.6740
0
SEQEND
0
POLYLINE
8
100
66
1
40
0.1778
41
0.1778
0
VERTEX
8
100
10
21.5900
20
58.6740
0
VERTEX
8
100
10
23.3680
20
60.4520
0
SEQEND
0
POLYLINE
8
100
66
1
40
0.4064
41
0.4064
0
VERTEX
8
100
10
22.9870
20
77.7240
0
VERTEX
8
100
10
22.9870
20
84.5820
0
SEQEND
0
POLYLINE
8
100
66
1
40
0.4064
41
0.4064
0
VERTEX
8
100
10
22.9870
20
84.5820
0
VERTEX
8
100
10
23.8760
20
85.4710
0
SEQEND
0
POLYLINE
8
100
66
1
40
0.7620
41
0.7620
0
VERTEX
8
100
10
22.6060
20
53.0860
0
VERTEX
8
100
10
22.6060
20
74.8030
0
SEQEND
0
POLYLINE
8
100
66
1
40
0.4064
41
0.4064
0
VERTEX
8
100
10
33.1470
20
25.0190
0
VERTEX
8
100
10
35.9410
20
25.0190
0
SEQEND
0
POLYLINE
8
100
66
1
40
0.4064
41
0.4064
0
VERTEX
8
100
10
38.9890
20
25.0190
0
VERTEX
8
100
10
41.2750
20
25.0190
0
SEQEND
0
POLYLINE
8
100
66
1
40
0.1778
41
0.1778
0
VERTEX
8
100
10
23.8760
20
54.8640
0
VERTEX
8
100
10
23.8760
20
56.5150
0
SEQEND
0
POLYLINE
8
100
66
1
40
0.1778
41
0.1778
0
VERTEX
8
100
10
25.0190
20
91.9480
0
VERTEX
8
100
10
25.0190
20
100.5840
0
SEQEND
0
POLYLINE
8
100
66
1
40
0.1778
41
0.1778
0
VERTEX
8
100
10
24.5110
20
91.8210
0
VERTEX
8
100
10
24.5110
20
93.2180
0
SEQEND
0
POLYLINE
8
100
66
1
40
0.1778
41
0.1778
0
VERTEX
8
100
10
24.1300
20
91.5670
0
VERTEX
8
100
10
24.1300
20
92.3290
0
SEQEND
0
POLYLINE
8
100
66
1
40
0.1778
41
0.1778
0
VERTEX
8
100
10
24.5110
20
93.2180
0
VERTEX
8
100
10
24.5110
20
108.9660
0
SEQEND
0
POLYLINE
8
100
66
1
40
0.1778
41
0.1778
0
VERTEX
8
100
10
24.1300
20
92.0750
0
VERTEX
8
100
10
24.1300
20
117.4750
0
SEQEND
0
POLYLINE
8
100
66
1
40
0.1778
41
0.1778
0
VERTEX
8
100
10
23.8760
20
56.5150
0
VERTEX
8
100
10
23.8760
20
59.0550
0
SEQEND
0
POLYLINE
8
100
66
1
40
0.1778
41
0.1778
0
VERTEX
8
100
10
25.0190
20
91.9480
0
VERTEX
8
100
10
27.3050
20
89.6620
0
SEQEND
0
POLYLINE
8
100
66
1
40
0.1778
41
0.1778
0
VERTEX
8
100
10
24.5110
20
91.8210
0
VERTEX
8
100
10
27.0510
20
89.2810
0
SEQEND
0
POLYLINE
8
100
66
1
40
0.1778
41
0.1778
0
VERTEX
8
100
10
23.8760
20
59.0550
0
VERTEX
8
100
10
24.8920
20
60.0710
0
SEQEND
0
POLYLINE
8
100
66
1
40
0.7620
41
0.7620
0
VERTEX
8
100
10
25.0190
20
74.8030
0
VERTEX
8
100
10
25.0190
20
87.3760
0
SEQEND
0
POLYLINE
8
100
66
1
40
0.7620
41
0.7620
0
VERTEX
8
100
10
25.0190
20
86.4870
0
VERTEX
8
100
10
25.0190
20
100.8380
0
SEQEND
0
POLYLINE
8
100
66
1
40
0.4064
41
0.4064
0
VERTEX
8
100
10
38.3540
20
26.1620
0
VERTEX
8
100
10
57.7850
20
26.1620
0
SEQEND
0
POLYLINE
8
100
66
1
40
0.4064
41
0.4064
0
VERTEX
8
100
10
100.7110
20
26.6700
0
VERTEX
8
100
10
101.6000
20
26.6700
0
SEQEND
0
POLYLINE
8
100
66
1
40
0.4064
41
0.4064
0
VERTEX
8
100
10
96.9010
20
26.6700
0
VERTEX
8
100
10
98.4250
20
26.6700
0
SEQEND
0
POLYLINE
8
100
66
1
40
0.4064
41
0.4064
0
VERTEX
8
100
10
31.1150
20
26.1620
0
VERTEX
8
100
10
35.9410
20
26.1620
0
SEQEND
0
POLYLINE
8
100
66
1
40
0.1778
41
0.1778
0
VERTEX
8
100
10
26.6700
20
68.9610
0
VERTEX
8
100
10
26.6700
20
71.8820
0
SEQEND
0
POLYLINE
8
100
66
1
40
0.1778
41
0.1778
0
VERTEX
8
100
10
26.6700
20
68.9610
0
VERTEX
8
100
10
27.0510
20
68.5800
0
SEQEND
0
POLYLINE
8
100
66
1
40
0.1778
41
0.1778
0
VERTEX
8
100
10
26.6700
20
54.8640
0
VERTEX
8
100
10
27.9400
20
53.5940
0
SEQEND
0
POLYLINE
8
100
66
1
40
0.4064
41
0.4064
0
VERTEX
8
100
10
25.9080
20
67.9450
0
VERTEX
8
100
10
26.5430
20
67.3100
0
SEQEND
0
POLYLINE
8
100
66
1
40
0.1778
41
0.1778
0
VERTEX
8
100
10
25.2730
20
65.4050
0
VERTEX
8
100
10
25.9080
20
66.0400
0
SEQEND
0
POLYLINE
8
100
66
1
40
0.1778
41
0.1778
0
VERTEX
8
100
10
25.9080
20
64.1350
0
VERTEX
8
100
10
27.9400
20
62.1030
0
SEQEND
0
POLYLINE
8
100
66
1
40
0.1778
41
0.1778
0
VERTEX
8
100
10
25.9080
20
66.0400
0
VERTEX
8
100
10
27.1780
20
64.7700
0
SEQEND
0
POLYLINE
8
100
66
1
40
0.4064
41
0.4064
0
VERTEX
8
100
10
33.1470
20
27.3050
0
VERTEX
8
100
10
35.9410
20
27.3050
0
SEQEND
0
POLYLINE
8
100
66
1
40
0.4064
41
0.4064
0
VERTEX
8
100
10
38.9890
20
27.3050
0
VERTEX
8
100
10
41.4020
20
27.3050
0
SEQEND
0
POLYLINE
8
100
66
1
40
0.4064
41
0.4064
0
VERTEX
8
100
10
27.8130
20
85.4710
0
VERTEX
8
100
10
27.8130
20
87.3760
0
SEQEND
0
POLYLINE
8
100
66
1
40
0.1778
41
0.1778
0
VERTEX
8
100
10
27.5590
20
46.8630
0
VERTEX
8
100
10
27.5590
20
49.7840
0
SEQEND
0
POLYLINE
8
100
66
1
40
0.1778
41
0.1778
0
VERTEX
8
100
10
27.1780
20
56.5150
0
VERTEX
8
100
10
27.8130
20
55.8800
0
SEQEND
0
POLYLINE
8
100
66
1
40
0.1778
41
0.1778
0
VERTEX
8
100
10
27.5590
20
49.7840
0
VERTEX
8
100
10
29.8450
20
52.0700
0
SEQEND
0
POLYLINE
8
100
66
1
40
0.1778
41
0.1778
0
VERTEX
8
100
10
102.4890
20
29.8450
0
VERTEX
8
100
10
104.1400
20
29.8450
0
SEQEND
0
POLYLINE
8
100
66
1
40
0.4064
41
0.4064
0
VERTEX
8
100
10
106.2990
20
29.8450
0
VERTEX
8
100
10
108.2040
20
29.8450
0
SEQEND
0
POLYLINE
8
100
66
1
40
0.4064
41
0.4064
0
VERTEX
8
100
10
110.7440
20
29.8450
0
VERTEX
8
100
10
117.7290
20
29.8450
0
SEQEND
0
POLYLINE
8
100
66
1
40
0.4064
41
0.4064
0
VERTEX
8
100
10
28.5750
20
28.7020
0
VERTEX
8
100
10
28.5750
20
32.5120
0
SEQEND
0
POLYLINE
8
100
66
1
40
0.1778
41
0.1778
0
VERTEX
8
100
10
28.5750
20
91.0590
0
VERTEX
8
100
10
28.5750
20
95.2500
0
SEQEND
0
POLYLINE
8
100
66
1
40
0.1778
41
0.1778
0
VERTEX
8
100
10
29.0830
20
57.2770
0
VERTEX
8
100
10
29.0830
20
58.1660
0
SEQEND
0
POLYLINE
8
100
66
1
40
0.4064
41
0.4064
0
VERTEX
8
100
10
28.5750
20
62.2300
0
VERTEX
8
100
10
28.5750
20
63.5000
0
SEQEND
0
POLYLINE
8
100
66
1
40
0.1778
41
0.1778
0
VERTEX
8
100
10
28.5750
20
91.0590
0
VERTEX
8
100
10
29.5910
20
90.0430
0
SEQEND
0
POLYLINE
8
100
66
1
40
0.1778
41
0.1778
0
VERTEX
8
100
10
29.7180
20
60.4520
0
VERTEX
8
100
10
31.2420
20
61.9760
0
SEQEND
0
POLYLINE
8
100
66
1
40
0.1778
41
0.1778
0
VERTEX
8
100
10
28.8290
20
58.4200
0
VERTEX
8
100
10
29.0830
20
58.1660
0
SEQEND
0
POLYLINE
8
100
66
1
40
0.1778
41
0.1778
0
VERTEX
8
100
10
29.8450
20
66.0400
0
VERTEX
8
100
10
30.8610
20
67.0560
0
SEQEND
0
POLYLINE
8
100
66
1
40
0.7620
41
0.7620
0
VERTEX
8
100
10
29.4640
20
68.5800
0
VERTEX
8
100
10
29.4640
20
74.8030
0
SEQEND
0
POLYLINE
8
100
66
1
40
0.7620
41
0.7620
0
VERTEX
8
100
10
29.3370
20
58.0390
0
VERTEX
8
100
10
29.3370
20
68.5800
0
SEQEND
0
POLYLINE
8
100
66
1
40
0.7620
41
0.7620
0
VERTEX
8
100
10
29.3370
20
53.0860
0
VERTEX
8
100
10
29.3370
20
58.4200
0
SEQEND
0
POLYLINE
8
100
66
1
40
0.4064
41
0.4064
0
VERTEX
8
100
10
50.4190
20
30.2260
0
VERTEX
8
100
10
55.1180
20
30.2260
0
SEQEND
0
POLYLINE
8
100
66
1
40
0.4064
41
0.4064
0
VERTEX
8
100
10
121.2850
20
30.0990
0
VERTEX
8
100
10
123.5710
20
30.0990
0
SEQEND
0
POLYLINE
8
100
66
1
40
0.1778
41
0.1778
0
VERTEX
8
100
10
31.2420
20
70.8660
0
VERTEX
8
100
10
31.2420
20
70.9930
0
SEQEND
0
POLYLINE
8
100
66
1
40
0.1778
41
0.1778
0
VERTEX
8
100
10
31.2420
20
54.8640
0
VERTEX
8
100
10
31.2420
20
56.0070
0
SEQEND
0
POLYLINE
8
100
66
1
40
0.1778
41
0.1778
0
VERTEX
8
100
10
31.2420
20
65.7860
0
VERTEX
8
100
10
31.2420
20
70.8660
0
SEQEND
0
POLYLINE
8
100
66
1
40
0.1778
41
0.1778
0
VERTEX
8
100
10
30.8610
20
67.0560
0
VERTEX
8
100
10
30.8610
20
71.3740
0
SEQEND
0
POLYLINE
8
100
66
1
40
0.1778
41
0.1778
0
VERTEX
8
100
10
30.2260
20
44.4500
0
VERTEX
8
100
10
30.2260
20
46.8630
0
SEQEND
0
POLYLINE
8
100
66
1
40
0.1778
41
0.1778
0
VERTEX
8
100
10
31.2420
20
61.9760
0
VERTEX
8
100
10
32.1310
20
62.8650
0
SEQEND
0
POLYLINE
8
100
66
1
40
0.1778
41
0.1778
0
VERTEX
8
100
10
30.2260
20
64.7700
0
VERTEX
8
100
10
31.1150
20
65.6590
0
SEQEND
0
POLYLINE
8
100
66
1
40
0.1778
41
0.1778
0
VERTEX
8
100
10
31.1150
20
65.6590
0
VERTEX
8
100
10
31.2420
20
65.7860
0
SEQEND
0
POLYLINE
8
100
66
1
40
0.4064
41
0.4064
0
VERTEX
8
100
10
75.4380
20
33.0200
0
VERTEX
8
100
10
79.8830
20
33.0200
0
SEQEND
0
POLYLINE
8
100
66
1
40
0.4064
41
0.4064
0
VERTEX
8
100
10
98.8060
20
33.0200
0
VERTEX
8
100
10
101.4730
20
33.0200
0
SEQEND
0
POLYLINE
8
100
66
1
40
0.4064
41
0.4064
0
VERTEX
8
100
10
98.8060
20
33.0200
0
VERTEX
8
100
10
100.4570
20
33.0200
0
SEQEND
0
POLYLINE
8
100
66
1
40
0.4064
41
0.4064
0
VERTEX
8
100
10
92.0750
20
33.0200
0
VERTEX
8
100
10
96.3930
20
33.0200
0
SEQEND
0
POLYLINE
8
100
66
1
40
0.4064
41
0.4064
0
VERTEX
8
100
10
87.5030
20
33.0200
0
VERTEX
8
100
10
92.0750
20
33.0200
0
SEQEND
0
POLYLINE
8
100
66
1
40
0.4064
41
0.4064
0
VERTEX
8
100
10
82.1690
20
33.0200
0
VERTEX
8
100
10
84.4550
20
33.0200
0
SEQEND
0
POLYLINE
8
100
66
1
40
0.4064
41
0.4064
0
VERTEX
8
100
10
32.5120
20
45.3390
0
VERTEX
8
100
10
32.5120
20
46.8630
0
SEQEND
0
POLYLINE
8
100
66
1
40
0.4064
41
0.4064
0
VERTEX
8
100
10
33.0200
20
84.5312
0
VERTEX
8
100
10
33.0200
20
87.3760
0
SEQEND
0
POLYLINE
8
100
66
1
40
0.1778
41
0.1778
0
VERTEX
8
100
10
32.8930
20
55.8800
0
VERTEX
8
100
10
32.8930
20
56.3880
0
SEQEND
0
POLYLINE
8
100
66
1
40
0.1778
41
0.1778
0
VERTEX
8
100
10
32.1310
20
62.8650
0
VERTEX
8
100
10
32.1310
20
66.6750
0
SEQEND
0
POLYLINE
8
100
66
1
40
0.1778
41
0.1778
0
VERTEX
8
100
10
32.5120
20
62.7380
0
VERTEX
8
100
10
32.5120
20
65.2780
0
SEQEND
0
POLYLINE
8
100
66
1
40
0.1778
41
0.1778
0
VERTEX
8
100
10
32.6390
20
36.7030
0
VERTEX
8
100
10
32.6390
20
38.2270
0
SEQEND
0
POLYLINE
8
100
66
1
40
0.1778
41
0.1778
0
VERTEX
8
100
10
32.8930
20
53.5940
0
VERTEX
8
100
10
33.9090
20
54.6100
0
SEQEND
0
POLYLINE
8
100
66
1
40
0.1778
41
0.1778
0
VERTEX
8
100
10
32.6390
20
56.6420
0
VERTEX
8
100
10
32.8930
20
56.3880
0
SEQEND
0
POLYLINE
8
100
66
1
40
0.1778
41
0.1778
0
VERTEX
8
100
10
32.1310
20
66.6750
0
VERTEX
8
100
10
32.7660
20
67.3100
0
SEQEND
0
POLYLINE
8
100
66
1
40
0.1778
41
0.1778
0
VERTEX
8
100
10
32.5120
20
65.2780
0
VERTEX
8
100
10
33.2740
20
66.0400
0
SEQEND
0
POLYLINE
8
100
66
1
40
0.1778
41
0.1778
0
VERTEX
8
100
10
32.2580
20
38.6080
0
VERTEX
8
100
10
32.6390
20
38.2270
0
SEQEND
0
POLYLINE
8
100
66
1
40
0.7620
41
0.7620
0
VERTEX
8
100
10
32.8930
20
55.8800
0
VERTEX
8
100
10
32.8930
20
58.4200
0
SEQEND
0
POLYLINE
8
100
66
1
40
0.4064
41
0.4064
0
VERTEX
8
100
10
50.2920
20
34.2900
0
VERTEX
8
100
10
60.8330
20
34.2900
0
SEQEND
0
POLYLINE
8
100
66
1
40
0.1778
41
0.1778
0
VERTEX
8
100
10
33.9090
20
54.6100
0
VERTEX
8
100
10
33.9090
20
56.7690
0
SEQEND
0
POLYLINE
8
100
66
1
40
0.4064
41
0.4064
0
VERTEX
8
100
10
34.5440
20
68.5800
0
VERTEX
8
100
10
34.5440
20
69.8500
0
SEQEND
0
POLYLINE
8
100
66
1
40
0.1778
41
0.1778
0
VERTEX
8
100
10
33.6550
20
37.0840
0
VERTEX
8
100
10
33.6550
20
37.8460
0
SEQEND
0
POLYLINE
8
100
66
1
40
0.1778
41
0.1778
0
VERTEX
8
100
10
33.6550
20
39.2430
0
VERTEX
8
100
10
33.6550
20
41.0210
0
SEQEND
0
POLYLINE
8
100
66
1
40
0.1778
41
0.1778
0
VERTEX
8
100
10
34.2900
20
74.8030
0
VERTEX
8
100
10
35.4076
20
75.9206
0
SEQEND
0
POLYLINE
8
100
66
1
40
0.1778
41
0.1778
0
VERTEX
8
100
10
33.4010
20
57.2770
0
VERTEX
8
100
10
33.9090
20
56.7690
0
SEQEND
0
POLYLINE
8
100
66
1
40
0.1778
41
0.1778
0
VERTEX
8
100
10
33.6550
20
37.0840
0
VERTEX
8
100
10
34.0360
20
36.7030
0
SEQEND
0
POLYLINE
8
100
66
1
40
0.7620
41
0.7620
0
VERTEX
8
100
10
34.5440
20
87.3760
0
VERTEX
8
100
10
34.5440
20
106.0450
0
SEQEND
0
POLYLINE
8
100
66
1
40
0.4064
41
0.4064
0
VERTEX
8
100
10
73.6600
20
34.7980
0
VERTEX
8
100
10
75.1840
20
34.7980
0
SEQEND
0
POLYLINE
8
100
66
1
40
0.4064
41
0.4064
0
VERTEX
8
100
10
90.0430
20
35.3060
0
VERTEX
8
100
10
91.1860
20
35.3060
0
SEQEND
0
POLYLINE
8
100
66
1
40
0.4064
41
0.4064
0
VERTEX
8
100
10
35.9410
20
45.3390
0
VERTEX
8
100
10
35.9410
20
46.8630
0
SEQEND
0
POLYLINE
8
100
66
1
40
0.1778
41
0.1778
0
VERTEX
8
100
10
35.4076
20
75.9206
0
VERTEX
8
100
10
37.5158
20
78.0288
0
SEQEND
0
POLYLINE
8
100
66
1
40
0.1778
41
0.1778
0
VERTEX
8
100
10
35.5600
20
78.7400
0
VERTEX
8
100
10
35.7632
20
78.5368
0
SEQEND
0
POLYLINE
8
100
66
1
40
0.1778
41
0.1778
0
VERTEX
8
100
10
35.6870
20
63.5000
0
VERTEX
8
100
10
36.4490
20
62.7380
0
SEQEND
0
POLYLINE
8
100
66
1
40
0.1778
41
0.1778
0
VERTEX
8
100
10
34.9250
20
36.7030
0
VERTEX
8
100
10
34.9250
20
42.0370
0
SEQEND
0
POLYLINE
8
100
66
1
40
0.1778
41
0.1778
0
VERTEX
8
100
10
34.9250
20
42.0370
0
VERTEX
8
100
10
35.8140
20
42.9260
0
SEQEND
0
POLYLINE
8
100
66
1
40
0.1778
41
0.1778
0
VERTEX
8
100
10
34.0360
20
36.7030
0
VERTEX
8
100
10
34.9250
20
36.7030
0
SEQEND
0
POLYLINE
8
100
66
1
40
0.4064
41
0.4064
0
VERTEX
8
100
10
99.9490
20
37.4650
0
VERTEX
8
100
10
101.6000
20
37.4650
0
SEQEND
0
POLYLINE
8
100
66
1
40
0.1778
41
0.1778
0
VERTEX
8
100
10
104.0130
20
37.4650
0
VERTEX
8
100
10
106.2990
20
37.4650
0
SEQEND
0
POLYLINE
8
100
66
1
40
0.4064
41
0.4064
0
VERTEX
8
100
10
82.4230
20
37.2110
0
VERTEX
8
100
10
89.5350
20
37.2110
0
SEQEND
0
POLYLINE
8
100
66
1
40
0.1778
41
0.1778
0
VERTEX
8
100
10
114.0460
20
37.4650
0
VERTEX
8
100
10
115.8240
20
37.4650
0
SEQEND
0
POLYLINE
8
100
66
1
40
0.1778
41
0.1778
0
VERTEX
8
100
10
115.5700
20
37.4650
0
VERTEX
8
100
10
118.3640
20
37.4650
0
SEQEND
0
POLYLINE
8
100
66
1
40
0.4064
41
0.4064
0
VERTEX
8
100
10
110.1090
20
37.4650
0
VERTEX
8
100
10
111.7600
20
37.4650
0
SEQEND
0
POLYLINE
8
100
66
1
40
0.4064
41
0.4064
0
VERTEX
8
100
10
41.9100
20
36.8300
0
VERTEX
8
100
10
44.8310
20
36.8300
0
SEQEND
0
POLYLINE
8
100
66
1
40
0.1778
41
0.1778
0
VERTEX
8
100
10
36.4490
20
62.1030
0
VERTEX
8
100
10
36.4490
20
62.7380
0
SEQEND
0
POLYLINE
8
100
66
1
40
0.7620
41
0.7620
0
VERTEX
8
100
10
36.3220
20
68.5800
0
VERTEX
8
100
10
36.3220
20
74.8030
0
SEQEND
0
POLYLINE
8
100
66
1
40
0.4064
41
0.4064
0
VERTEX
8
100
10
59.4360
20
38.9890
0
VERTEX
8
100
10
60.9600
20
38.9890
0
SEQEND
0
POLYLINE
8
100
66
1
40
0.1778
41
0.1778
0
VERTEX
8
100
10
31.4960
20
38.6080
0
VERTEX
8
100
10
32.2580
20
38.6080
0
SEQEND
0
POLYLINE
8
100
66
1
40
0.4064
41
0.4064
0
VERTEX
8
100
10
33.6550
20
38.6080
0
VERTEX
8
100
10
36.4490
20
38.6080
0
SEQEND
0
POLYLINE
8
100
66
1
40
0.4064
41
0.4064
0
VERTEX
8
100
10
29.9720
20
39.2430
0
VERTEX
8
100
10
31.6230
20
39.2430
0
SEQEND
0
POLYLINE
8
100
66
1
40
0.4064
41
0.4064
0
VERTEX
8
100
10
38.6080
20
38.7350
0
VERTEX
8
100
10
41.1480
20
38.7350
0
SEQEND
0
POLYLINE
8
100
66
1
40
0.4064
41
0.4064
0
VERTEX
8
100
10
52.4510
20
38.7350
0
VERTEX
8
100
10
56.2610
20
38.7350
0
SEQEND
0
POLYLINE
8
100
66
1
40
0.4064
41
0.4064
0
VERTEX
8
100
10
45.3390
20
38.7350
0
VERTEX
8
100
10
50.2920
20
38.7350
0
SEQEND
0
POLYLINE
8
100
66
1
40
0.4064
41
0.4064
0
VERTEX
8
100
10
25.2730
20
39.2430
0
VERTEX
8
100
10
27.3050
20
39.2430
0
SEQEND
0
POLYLINE
8
100
66
1
40
0.4064
41
0.4064
0
VERTEX
8
100
10
38.9890
20
27.3050
0
VERTEX
8
100
10
38.9890
20
28.8290
0
SEQEND
0
POLYLINE
8
100
66
1
40
0.1778
41
0.1778
0
VERTEX
8
100
10
38.2270
20
42.9260
0
VERTEX
8
100
10
38.2270
20
46.9900
0
SEQEND
0
POLYLINE
8
100
66
1
40
0.1778
41
0.1778
0
VERTEX
8
100
10
37.8460
20
70.4850
0
VERTEX
8
100
10
38.3794
20
71.0184
0
SEQEND
0
POLYLINE
8
100
66
1
40
0.1778
41
0.1778
0
VERTEX
8
100
10
37.8460
20
70.6120
0
VERTEX
8
100
10
37.8460
20
77.0890
0
SEQEND
0
POLYLINE
8
100
66
1
40
0.1778
41
0.1778
0
VERTEX
8
100
10
37.8460
20
77.0890
0
VERTEX
8
100
10
38.8620
20
78.1050
0
SEQEND
0
POLYLINE
8
100
66
1
40
0.4064
41
0.4064
0
VERTEX
8
100
10
87.8840
20
40.6400
0
VERTEX
8
100
10
89.4080
20
40.6400
0
SEQEND
0
POLYLINE
8
100
66
1
40
0.4064
41
0.4064
0
VERTEX
8
100
10
54.3560
20
40.7670
0
VERTEX
8
100
10
55.8800
20
40.7670
0
SEQEND
0
POLYLINE
8
100
66
1
40
0.1778
41
0.1778
0
VERTEX
8
100
10
99.3140
20
39.7510
0
VERTEX
8
100
10
105.6640
20
39.7510
0
SEQEND
0
POLYLINE
8
100
66
1
40
0.4064
41
0.4064
0
VERTEX
8
100
10
91.9480
20
40.6400
0
VERTEX
8
100
10
94.6150
20
40.6400
0
SEQEND
0
POLYLINE
8
100
66
1
40
0.4064
41
0.4064
0
VERTEX
8
100
10
41.9100
20
40.8940
0
VERTEX
8
100
10
44.8310
20
40.8940
0
SEQEND
0
POLYLINE
8
100
66
1
40
0.4064
41
0.4064
0
VERTEX
8
100
10
59.0550
20
40.7670
0
VERTEX
8
100
10
60.5790
20
40.7670
0
SEQEND
0
POLYLINE
8
100
66
1
40
0.1778
41
0.1778
0
VERTEX
8
100
10
40.8686
20
88.9000
0
VERTEX
8
100
10
42.3926
20
87.3760
0
SEQEND
0
POLYLINE
8
100
66
1
40
0.1778
41
0.1778
0
VERTEX
8
100
10
40.6400
20
64.7700
0
VERTEX
8
100
10
41.0210
20
64.3890
0
SEQEND
0
POLYLINE
8
100
66
1
40
0.7620
41
0.7620
0
VERTEX
8
100
10
40.2590
20
72.7710
0
VERTEX
8
100
10
40.2590
20
74.8030
0
SEQEND
0
POLYLINE
8
100
66
1
40
0.7620
41
0.7620
0
VERTEX
8
100
10
40.2590
20
73.7870
0
VERTEX
8
100
10
40.2590
20
87.3760
0
SEQEND
0
POLYLINE
8
100
66
1
40
0.4064
41
0.4064
0
VERTEX
8
100
10
99.9490
20
41.9100
0
VERTEX
8
100
10
101.6000
20
41.9100
0
SEQEND
0
POLYLINE
8
100
66
1
40
0.1778
41
0.1778
0
VERTEX
8
100
10
103.8860
20
41.9100
0
VERTEX
8
100
10
107.4420
20
41.9100
0
SEQEND
0
POLYLINE
8
100
66
1
40
0.1778
41
0.1778
0
VERTEX
8
100
10
121.2850
20
42.2910
0
VERTEX
8
100
10
122.5550
20
42.2910
0
SEQEND
0
POLYLINE
8
100
66
1
40
0.1778
41
0.1778
0
VERTEX
8
100
10
114.1730
20
41.9100
0
VERTEX
8
100
10
116.3320
20
41.9100
0
SEQEND
0
POLYLINE
8
100
66
1
40
0.1778
41
0.1778
0
VERTEX
8
100
10
119.3800
20
42.2910
0
VERTEX
8
100
10
119.8880
20
42.2910
0
SEQEND
0
POLYLINE
8
100
66
1
40
0.4064
41
0.4064
0
VERTEX
8
100
10
110.1090
20
41.9100
0
VERTEX
8
100
10
111.7600
20
41.9100
0
SEQEND
0
POLYLINE
8
100
66
1
40
0.1778
41
0.1778
0
VERTEX
8
100
10
42.3926
20
87.1982
0
VERTEX
8
100
10
42.3926
20
87.3760
0
SEQEND
0
POLYLINE
8
100
66
1
40
0.1778
41
0.1778
0
VERTEX
8
100
10
42.3926
20
84.3280
0
VERTEX
8
100
10
42.3926
20
87.1982
0
SEQEND
0
POLYLINE
8
100
66
1
40
0.1778
41
0.1778
0
VERTEX
8
100
10
42.2402
20
71.9836
0
VERTEX
8
100
10
42.2402
20
72.4916
0
SEQEND
0
POLYLINE
8
100
66
1
40
0.1778
41
0.1778
0
VERTEX
8
100
10
42.2402
20
70.8914
0
VERTEX
8
100
10
42.2402
20
72.0852
0
SEQEND
0
POLYLINE
8
100
66
1
40
0.1778
41
0.1778
0
VERTEX
8
100
10
42.4180
20
68.5800
0
VERTEX
8
100
10
42.4180
20
70.2056
0
SEQEND
0
POLYLINE
8
100
66
1
40
0.1778
41
0.1778
0
VERTEX
8
100
10
41.0210
20
63.3730
0
VERTEX
8
100
10
41.0210
20
64.3890
0
SEQEND
0
POLYLINE
8
100
66
1
40
0.1778
41
0.1778
0
VERTEX
8
100
10
41.1480
20
61.0870
0
VERTEX
8
100
10
41.1480
20
61.9760
0
SEQEND
0
POLYLINE
8
100
66
1
40
0.1778
41
0.1778
0
VERTEX
8
100
10
41.0210
20
46.9900
0
VERTEX
8
100
10
41.0210
20
51.0540
0
SEQEND
0
POLYLINE
8
100
66
1
40
0.1778
41
0.1778
0
VERTEX
8
100
10
42.3164
20
90.0430
0
VERTEX
8
100
10
43.9166
20
88.4428
0
SEQEND
0
POLYLINE
8
100
66
1
40
0.1778
41
0.1778
0
VERTEX
8
100
10
41.6306
20
89.6620
0
VERTEX
8
100
10
43.4086
20
87.8840
0
SEQEND
0
POLYLINE
8
100
66
1
40
0.1778
41
0.1778
0
VERTEX
8
100
10
41.2496
20
89.2810
0
VERTEX
8
100
10
42.9006
20
87.6300
0
SEQEND
0
POLYLINE
8
100
66
1
40
0.1778
41
0.1778
0
VERTEX
8
100
10
42.2402
20
72.4916
0
VERTEX
8
100
10
42.5450
20
72.7964
0
SEQEND
0
POLYLINE
8
100
66
1
40
0.1778
41
0.1778
0
VERTEX
8
100
10
41.8846
20
70.5358
0
VERTEX
8
100
10
42.2402
20
70.8914
0
SEQEND
0
POLYLINE
8
100
66
1
40
0.1778
41
0.1778
0
VERTEX
8
100
10
42.4180
20
70.2056
0
VERTEX
8
100
10
43.3578
20
71.1454
0
SEQEND
0
POLYLINE
8
100
66
1
40
0.1778
41
0.1778
0
VERTEX
8
100
10
42.1386
20
82.0420
0
VERTEX
8
100
10
42.6466
20
81.5340
0
SEQEND
0
POLYLINE
8
100
66
1
40
0.7620
41
0.7620
0
VERTEX
8
100
10
41.0210
20
93.2180
0
VERTEX
8
100
10
41.0210
20
106.0450
0
SEQEND
0
POLYLINE
8
100
66
1
40
0.1778
41
0.1778
0
VERTEX
8
100
10
117.2210
20
41.0210
0
VERTEX
8
100
10
122.5550
20
41.0210
0
SEQEND
0
POLYLINE
8
100
66
1
40
0.1778
41
0.1778
0
VERTEX
8
100
10
118.7450
20
43.3070
0
VERTEX
8
100
10
120.2690
20
43.3070
0
SEQEND
0
POLYLINE
8
100
66
1
40
0.1778
41
0.1778
0
VERTEX
8
100
10
43.9166
20
87.8840
0
VERTEX
8
100
10
43.9166
20
88.4428
0
SEQEND
0
POLYLINE
8
100
66
1
40
0.1778
41
0.1778
0
VERTEX
8
100
10
43.9166
20
84.3280
0
VERTEX
8
100
10
43.9166
20
88.1380
0
SEQEND
0
POLYLINE
8
100
66
1
40
0.1778
41
0.1778
0
VERTEX
8
100
10
43.4086
20
84.1502
0
VERTEX
8
100
10
43.4086
20
87.8840
0
SEQEND
0
POLYLINE
8
100
66
1
40
0.1778
41
0.1778
0
VERTEX
8
100
10
42.9006
20
84.3026
0
VERTEX
8
100
10
42.9006
20
87.6300
0
SEQEND
0
POLYLINE
8
100
66
1
40
0.1778
41
0.1778
0
VERTEX
8
100
10
43.9420
20
66.8528
0
VERTEX
8
100
10
43.9420
20
68.3006
0
SEQEND
0
POLYLINE
8
100
66
1
40
0.1778
41
0.1778
0
VERTEX
8
100
10
43.0530
20
93.1418
0
VERTEX
8
100
10
43.0530
20
93.9800
0
SEQEND
0
POLYLINE
8
100
66
1
40
0.1778
41
0.1778
0
VERTEX
8
100
10
43.0530
20
93.7260
0
VERTEX
8
100
10
43.0530
20
100.5840
0
SEQEND
0
POLYLINE
8
100
66
1
40
0.1778
41
0.1778
0
VERTEX
8
100
10
43.9420
20
66.6750
0
VERTEX
8
100
10
43.9420
20
66.9290
0
SEQEND
0
POLYLINE
8
100
66
1
40
0.1778
41
0.1778
0
VERTEX
8
100
10
43.4594
20
66.2686
0
VERTEX
8
100
10
43.4594
20
68.2244
0
SEQEND
0
POLYLINE
8
100
66
1
40
0.1778
41
0.1778
0
VERTEX
8
100
10
43.0530
20
93.1418
0
VERTEX
8
100
10
43.9420
20
92.2528
0
SEQEND
0
POLYLINE
8
100
66
1
40
0.1778
41
0.1778
0
VERTEX
8
100
10
43.0530
20
100.5840
0
VERTEX
8
100
10
44.0690
20
101.6000
0
SEQEND
0
POLYLINE
8
100
66
1
40
0.1778
41
0.1778
0
VERTEX
8
100
10
43.9420
20
66.6750
0
VERTEX
8
100
10
45.3390
20
65.2780
0
SEQEND
0
POLYLINE
8
100
66
1
40
0.1778
41
0.1778
0
VERTEX
8
100
10
43.4594
20
66.2686
0
VERTEX
8
100
10
44.7040
20
65.0240
0
SEQEND
0
POLYLINE
8
100
66
1
40
0.7620
41
0.7620
0
VERTEX
8
100
10
43.3070
20
72.7710
0
VERTEX
8
100
10
43.3070
20
76.5810
0
SEQEND
0
POLYLINE
8
100
66
1
40
0.7620
41
0.7620
0
VERTEX
8
100
10
42.7990
20
55.8800
0
VERTEX
8
100
10
42.7990
20
68.5800
0
SEQEND
0
POLYLINE
8
100
66
1
40
0.1778
41
0.1778
0
VERTEX
8
100
10
35.8140
20
42.9260
0
VERTEX
8
100
10
38.2270
20
42.9260
0
SEQEND
0
POLYLINE
8
100
66
1
40
0.1778
41
0.1778
0
VERTEX
8
100
10
42.6720
20
81.6610
0
VERTEX
8
100
10
42.6720
20
88.1380
0
SEQEND
0
POLYLINE
8
100
66
1
40
0.1778
41
0.1778
0
VERTEX
8
100
10
42.6720
20
88.1380
0
VERTEX
8
100
10
43.9420
20
89.4080
0
SEQEND
0
POLYLINE
8
100
66
1
40
0.1778
41
0.1778
0
VERTEX
8
100
10
105.7910
20
44.7040
0
VERTEX
8
100
10
106.4260
20
44.7040
0
SEQEND
0
POLYLINE
8
100
66
1
40
0.1778
41
0.1778
0
VERTEX
8
100
10
100.7110
20
44.7040
0
VERTEX
8
100
10
105.7910
20
44.7040
0
SEQEND
0
POLYLINE
8
100
66
1
40
0.1778
41
0.1778
0
VERTEX
8
100
10
100.9650
20
45.2120
0
VERTEX
8
100
10
111.6330
20
45.2120
0
SEQEND
0
POLYLINE
8
100
66
1
40
0.1778
41
0.1778
0
VERTEX
8
100
10
44.8818
20
82.9056
0
VERTEX
8
100
10
44.8818
20
83.9216
0
SEQEND
0
POLYLINE
8
100
66
1
40
0.1778
41
0.1778
0
VERTEX
8
100
10
44.3992
20
81.4324
0
VERTEX
8
100
10
44.3992
20
84.8360
0
SEQEND
0
POLYLINE
8
100
66
1
40
0.1778
41
0.1778
0
VERTEX
8
100
10
45.4406
20
68.7324
0
VERTEX
8
100
10
45.4406
20
70.9168
0
SEQEND
0
POLYLINE
8
100
66
1
40
0.1778
41
0.1778
0
VERTEX
8
100
10
44.7040
20
55.4990
0
VERTEX
8
100
10
44.7040
20
64.8970
0
SEQEND
0
POLYLINE
8
100
66
1
40
0.1778
41
0.1778
0
VERTEX
8
100
10
45.3390
20
55.3720
0
VERTEX
8
100
10
45.3390
20
64.6430
0
SEQEND
0
POLYLINE
8
100
66
1
40
0.1778
41
0.1778
0
VERTEX
8
100
10
45.3390
20
64.3890
0
VERTEX
8
100
10
45.3390
20
65.2780
0
SEQEND
0
POLYLINE
8
100
66
1
40
0.1778
41
0.1778
0
VERTEX
8
100
10
44.7040
20
64.6684
0
VERTEX
8
100
10
44.7040
20
65.0240
0
SEQEND
0
POLYLINE
8
100
66
1
40
0.1778
41
0.1778
0
VERTEX
8
100
10
44.8818
20
82.9056
0
VERTEX
8
100
10
46.1518
20
81.6356
0
SEQEND
0
POLYLINE
8
100
66
1
40
0.1778
41
0.1778
0
VERTEX
8
100
10
44.1198
20
74.0156
0
VERTEX
8
100
10
44.8564
20
74.7522
0
SEQEND
0
POLYLINE
8
100
66
1
40
0.7620
41
0.7620
0
VERTEX
8
100
10
44.9580
20
47.6250
0
VERTEX
8
100
10
44.9580
20
53.0860
0
SEQEND
0
POLYLINE
8
100
66
1
40
0.1778
41
0.1778
0
VERTEX
8
100
10
44.8310
20
78.1050
0
VERTEX
8
100
10
45.8470
20
79.1210
0
SEQEND
0
POLYLINE
8
100
66
1
40
0.4064
41
0.4064
0
VERTEX
8
100
10
32.6390
20
46.8630
0
VERTEX
8
100
10
36.0680
20
46.8630
0
SEQEND
0
POLYLINE
8
100
66
1
40
0.1778
41
0.1778
0
VERTEX
8
100
10
38.2270
20
46.8630
0
VERTEX
8
100
10
41.1480
20
46.8630
0
SEQEND
0
POLYLINE
8
100
66
1
40
0.1778
41
0.1778
0
VERTEX
8
100
10
27.4320
20
46.8630
0
VERTEX
8
100
10
30.2260
20
46.8630
0
SEQEND
0
POLYLINE
8
100
66
1
40
0.1778
41
0.1778
0
VERTEX
8
100
10
101.2190
20
45.7200
0
VERTEX
8
100
10
111.8870
20
45.7200
0
SEQEND
0
POLYLINE
8
100
66
1
40
0.1778
41
0.1778
0
VERTEX
8
100
10
45.9486
20
69.2404
0
VERTEX
8
100
10
45.9486
20
70.1548
0
SEQEND
0
POLYLINE
8
100
66
1
40
0.1778
41
0.1778
0
VERTEX
8
100
10
46.9392
20
71.1200
0
VERTEX
8
100
10
46.9392
20
71.5518
0
SEQEND
0
POLYLINE
8
100
66
1
40
0.1778
41
0.1778
0
VERTEX
8
100
10
46.9392
20
71.5518
0
VERTEX
8
100
10
46.9392
20
72.3646
0
SEQEND
0
POLYLINE
8
100
66
1
40
0.1778
41
0.1778
0
VERTEX
8
100
10
45.9486
20
70.1548
0
VERTEX
8
100
10
46.9392
20
71.1454
0
SEQEND
0
POLYLINE
8
100
66
1
40
0.1778
41
0.1778
0
VERTEX
8
100
10
47.0916
20
92.2528
0
VERTEX
8
100
10
47.9298
20
91.4146
0
SEQEND
0
POLYLINE
8
100
66
1
40
0.7620
41
0.7620
0
VERTEX
8
100
10
46.9900
20
72.3900
0
VERTEX
8
100
10
46.9900
20
76.5810
0
SEQEND
0
POLYLINE
8
100
66
1
40
0.7620
41
0.7620
0
VERTEX
8
100
10
46.9900
20
71.1200
0
VERTEX
8
100
10
46.9900
20
72.6440
0
SEQEND
0
POLYLINE
8
100
66
1
40
0.7620
41
0.7620
0
VERTEX
8
100
10
46.9900
20
87.3760
0
VERTEX
8
100
10
46.9900
20
93.2180
0
SEQEND
0
POLYLINE
8
100
66
1
40
0.7620
41
0.7620
0
VERTEX
8
100
10
46.9900
20
75.9460
0
VERTEX
8
100
10
46.9900
20
81.6610
0
SEQEND
0
POLYLINE
8
100
66
1
40
0.1778
41
0.1778
0
VERTEX
8
100
10
45.8470
20
79.1210
0
VERTEX
8
100
10
45.8470
20
84.4550
0
SEQEND
0
POLYLINE
8
100
66
1
40
0.1778
41
0.1778
0
VERTEX
8
100
10
45.8470
20
84.4550
0
VERTEX
8
100
10
46.8630
20
85.4710
0
SEQEND
0
POLYLINE
8
100
66
1
40
0.4064
41
0.4064
0
VERTEX
8
100
10
112.9030
20
47.2440
0
VERTEX
8
100
10
117.3480
20
47.2440
0
SEQEND
0
POLYLINE
8
100
66
1
40
0.4064
41
0.4064
0
VERTEX
8
100
10
106.6800
20
47.2440
0
VERTEX
8
100
10
112.9030
20
47.2440
0
SEQEND
0
POLYLINE
8
100
66
1
40
0.4064
41
0.4064
0
VERTEX
8
100
10
44.9580
20
47.6250
0
VERTEX
8
100
10
47.6250
20
47.6250
0
SEQEND
0
POLYLINE
8
100
66
1
40
0.1778
41
0.1778
0
VERTEX
8
100
10
47.9298
20
65.1510
0
VERTEX
8
100
10
47.9298
20
68.4784
0
SEQEND
0
POLYLINE
8
100
66
1
40
0.1778
41
0.1778
0
VERTEX
8
100
10
47.4472
20
64.7446
0
VERTEX
8
100
10
47.4472
20
68.1482
0
SEQEND
0
POLYLINE
8
100
66
1
40
0.1778
41
0.1778
0
VERTEX
8
100
10
47.9298
20
67.8434
0
VERTEX
8
100
10
47.9298
20
68.1990
0
SEQEND
0
POLYLINE
8
100
66
1
40
0.1778
41
0.1778
0
VERTEX
8
100
10
47.4472
20
67.6910
0
VERTEX
8
100
10
47.4472
20
68.3768
0
SEQEND
0
POLYLINE
8
100
66
1
40
0.1778
41
0.1778
0
VERTEX
8
100
10
47.4218
20
81.6356
0
VERTEX
8
100
10
47.4218
20
84.0994
0
SEQEND
0
POLYLINE
8
100
66
1
40
0.1778
41
0.1778
0
VERTEX
8
100
10
47.9298
20
84.2264
0
VERTEX
8
100
10
47.9298
20
91.4146
0
SEQEND
0
POLYLINE
8
100
66
1
40
0.1778
41
0.1778
0
VERTEX
8
100
10
48.4124
20
84.3026
0
VERTEX
8
100
10
48.4124
20
92.2020
0
SEQEND
0
POLYLINE
8
100
66
1
40
0.4064
41
0.4064
0
VERTEX
8
100
10
47.8790
20
99.5680
0
VERTEX
8
100
10
47.8790
20
101.7270
0
SEQEND
0
POLYLINE
8
100
66
1
40
0.4064
41
0.4064
0
VERTEX
8
100
10
47.6250
20
45.5930
0
VERTEX
8
100
10
47.6250
20
47.6250
0
SEQEND
0
POLYLINE
8
100
66
1
40
0.4064
41
0.4064
0
VERTEX
8
100
10
47.6250
20
41.1480
0
VERTEX
8
100
10
47.6250
20
43.1800
0
SEQEND
0
POLYLINE
8
100
66
1
40
0.1778
41
0.1778
0
VERTEX
8
100
10
48.4124
20
92.2020
0
VERTEX
8
100
10
49.3014
20
93.0910
0
SEQEND
0
POLYLINE
8
100
66
1
40
0.1778
41
0.1778
0
VERTEX
8
100
10
49.9618
20
66.6242
0
VERTEX
8
100
10
49.9618
20
68.1482
0
SEQEND
0
POLYLINE
8
100
66
1
40
0.1778
41
0.1778
0
VERTEX
8
100
10
49.9364
20
81.1784
0
VERTEX
8
100
10
49.9364
20
82.0674
0
SEQEND
0
POLYLINE
8
100
66
1
40
0.1778
41
0.1778
0
VERTEX
8
100
10
49.4284
20
68.7832
0
VERTEX
8
100
10
49.4284
20
71.1962
0
SEQEND
0
POLYLINE
8
100
66
1
40
0.4064
41
0.4064
0
VERTEX
8
100
10
50.0380
20
46.2280
0
VERTEX
8
100
10
50.0380
20
49.0220
0
SEQEND
0
POLYLINE
8
100
66
1
40
0.1778
41
0.1778
0
VERTEX
8
100
10
49.9364
20
82.0674
0
VERTEX
8
100
10
50.9016
20
83.0326
0
SEQEND
0
POLYLINE
8
100
66
1
40
0.7620
41
0.7620
0
VERTEX
8
100
10
49.6570
20
53.0860
0
VERTEX
8
100
10
49.6570
20
55.8800
0
SEQEND
0
POLYLINE
8
100
66
1
40
0.7620
41
0.7620
0
VERTEX
8
100
10
49.9110
20
71.1200
0
VERTEX
8
100
10
49.9110
20
76.4540
0
SEQEND
0
POLYLINE
8
100
66
1
40
0.7620
41
0.7620
0
VERTEX
8
100
10
49.9110
20
75.8190
0
VERTEX
8
100
10
49.9110
20
81.2800
0
SEQEND
0
POLYLINE
8
100
66
1
40
0.7620
41
0.7620
0
VERTEX
8
100
10
49.9110
20
81.2800
0
VERTEX
8
100
10
49.9110
20
84.8360
0
SEQEND
0
POLYLINE
8
100
66
1
40
0.7620
41
0.7620
0
VERTEX
8
100
10
49.4030
20
99.5680
0
VERTEX
8
100
10
49.4030
20
106.0450
0
SEQEND
0
POLYLINE
8
100
66
1
40
0.7620
41
0.7620
0
VERTEX
8
100
10
49.9110
20
62.7380
0
VERTEX
8
100
10
49.9110
20
73.4060
0
SEQEND
0
POLYLINE
8
100
66
1
40
0.1778
41
0.1778
0
VERTEX
8
100
10
50.4444
20
67.2846
0
VERTEX
8
100
10
50.4444
20
68.2244
0
SEQEND
0
POLYLINE
8
100
66
1
40
0.1778
41
0.1778
0
VERTEX
8
100
10
51.0540
20
87.6300
0
VERTEX
8
100
10
51.0540
20
93.0910
0
SEQEND
0
POLYLINE
8
100
66
1
40
0.1778
41
0.1778
0
VERTEX
8
100
10
50.9016
20
83.0326
0
VERTEX
8
100
10
50.9016
20
83.8200
0
SEQEND
0
POLYLINE
8
100
66
1
40
0.1778
41
0.1778
0
VERTEX
8
100
10
51.9430
20
69.1388
0
VERTEX
8
100
10
51.9430
20
70.1802
0
SEQEND
0
POLYLINE
8
100
66
1
40
0.1778
41
0.1778
0
VERTEX
8
100
10
51.4096
20
82.0928
0
VERTEX
8
100
10
51.4096
20
84.3788
0
SEQEND
0
POLYLINE
8
100
66
1
40
0.1778
41
0.1778
0
VERTEX
8
100
10
50.9016
20
71.2216
0
VERTEX
8
100
10
51.9430
20
70.1802
0
SEQEND
0
POLYLINE
8
100
66
1
40
0.7620
41
0.7620
0
VERTEX
8
100
10
50.8000
20
109.2200
0
VERTEX
8
100
10
50.8000
20
116.2050
0
SEQEND
0
POLYLINE
8
100
66
1
40
0.1778
41
0.1778
0
VERTEX
8
100
10
29.8450
20
52.0700
0
VERTEX
8
100
10
41.2750
20
52.0700
0
SEQEND
0
POLYLINE
8
100
66
1
40
0.1778
41
0.1778
0
VERTEX
8
100
10
52.9336
20
66.4464
0
VERTEX
8
100
10
52.9336
20
68.3260
0
SEQEND
0
POLYLINE
8
100
66
1
40
0.1778
41
0.1778
0
VERTEX
8
100
10
52.4256
20
68.4022
0
VERTEX
8
100
10
52.4256
20
71.2978
0
SEQEND
0
POLYLINE
8
100
66
1
40
0.1778
41
0.1778
0
VERTEX
8
100
10
53.4670
20
63.1190
0
VERTEX
8
100
10
53.9750
20
62.6110
0
SEQEND
0
POLYLINE
8
100
66
1
40
0.1778
41
0.1778
0
VERTEX
8
100
10
52.9336
20
66.4464
0
VERTEX
8
100
10
54.1528
20
65.2272
0
SEQEND
0
POLYLINE
8
100
66
1
40
0.1778
41
0.1778
0
VERTEX
8
100
10
52.7304
20
72.8726
0
VERTEX
8
100
10
55.0672
20
70.5358
0
SEQEND
0
POLYLINE
8
100
66
1
40
0.7620
41
0.7620
0
VERTEX
8
100
10
22.6060
20
53.0860
0
VERTEX
8
100
10
49.6570
20
53.0860
0
SEQEND
0
POLYLINE
8
100
66
1
40
0.7620
41
0.7620
0
VERTEX
8
100
10
52.3240
20
99.5680
0
VERTEX
8
100
10
52.3240
20
101.6000
0
SEQEND
0
POLYLINE
8
100
66
1
40
0.7620
41
0.7620
0
VERTEX
8
100
10
26.6700
20
53.0860
0
VERTEX
8
100
10
91.6940
20
53.0860
0
SEQEND
0
POLYLINE
8
100
66
1
40
0.4064
41
0.4064
0
VERTEX
8
100
10
123.0630
20
54.8640
0
VERTEX
8
100
10
124.5870
20
54.8640
0
SEQEND
0
POLYLINE
8
100
66
1
40
0.4064
41
0.4064
0
VERTEX
8
100
10
118.1100
20
54.8640
0
VERTEX
8
100
10
119.6340
20
54.8640
0
SEQEND
0
POLYLINE
8
100
66
1
40
0.1778
41
0.1778
0
VERTEX
8
100
10
18.4150
20
54.8640
0
VERTEX
8
100
10
22.9870
20
54.8640
0
SEQEND
0
POLYLINE
8
100
66
1
40
0.1778
41
0.1778
0
VERTEX
8
100
10
22.9870
20
54.8640
0
VERTEX
8
100
10
26.6700
20
54.8640
0
SEQEND
0
POLYLINE
8
100
66
1
40
0.1778
41
0.1778
0
VERTEX
8
100
10
27.9400
20
53.5940
0
VERTEX
8
100
10
32.8930
20
53.5940
0
SEQEND
0
POLYLINE
8
100
66
1
40
0.2540
41
0.2540
0
VERTEX
8
100
10
5.0800
20
54.6100
0
VERTEX
8
100
10
11.4300
20
54.6100
0
SEQEND
0
POLYLINE
8
100
66
1
40
0.1778
41
0.1778
0
VERTEX
8
100
10
54.6608
20
81.0514
0
VERTEX
8
100
10
54.6608
20
82.1690
0
SEQEND
0
POLYLINE
8
100
66
1
40
0.1778
41
0.1778
0
VERTEX
8
100
10
54.4322
20
82.9056
0
VERTEX
8
100
10
54.4322
20
84.2518
0
SEQEND
0
POLYLINE
8
100
66
1
40
0.1778
41
0.1778
0
VERTEX
8
100
10
54.3560
20
63.3730
0
VERTEX
8
100
10
54.6100
20
63.1190
0
SEQEND
0
POLYLINE
8
100
66
1
40
0.1778
41
0.1778
0
VERTEX
8
100
10
54.2290
20
80.6196
0
VERTEX
8
100
10
54.6608
20
81.0514
0
SEQEND
0
POLYLINE
8
100
66
1
40
0.1778
41
0.1778
0
VERTEX
8
100
10
54.6608
20
82.1690
0
VERTEX
8
100
10
55.0418
20
82.5500
0
SEQEND
0
POLYLINE
8
100
66
1
40
0.1778
41
0.1778
0
VERTEX
8
100
10
53.5940
20
74.7522
0
VERTEX
8
100
10
54.8132
20
73.5330
0
SEQEND
0
POLYLINE
8
100
66
1
40
0.1778
41
0.1778
0
VERTEX
8
100
10
53.7464
20
82.2452
0
VERTEX
8
100
10
54.4322
20
82.9310
0
SEQEND
0
POLYLINE
8
100
66
1
40
0.1778
41
0.1778
0
VERTEX
8
100
10
54.1020
20
65.2780
0
VERTEX
8
100
10
55.7530
20
63.6270
0
SEQEND
0
POLYLINE
8
100
66
1
40
0.2540
41
0.2540
0
VERTEX
8
100
10
5.0800
20
54.6100
0
VERTEX
8
100
10
11.4300
20
54.6100
0
SEQEND
0
POLYLINE
8
100
66
1
40
0.7620
41
0.7620
0
VERTEX
8
100
10
16.6370
20
54.7370
0
VERTEX
8
100
10
25.0190
20
54.7370
0
SEQEND
0
POLYLINE
8
100
66
1
40
0.2540
41
0.2540
0
VERTEX
8
100
10
5.0800
20
54.6100
0
VERTEX
8
100
10
11.4300
20
54.6100
0
SEQEND
0
POLYLINE
8
100
66
1
40
0.1778
41
0.1778
0
VERTEX
8
100
10
19.4310
20
56.5150
0
VERTEX
8
100
10
21.5900
20
56.5150
0
SEQEND
0
POLYLINE
8
100
66
1
40
0.1778
41
0.1778
0
VERTEX
8
100
10
27.8130
20
55.8800
0
VERTEX
8
100
10
29.0830
20
55.8800
0
SEQEND
0
POLYLINE
8
100
66
1
40
0.1778
41
0.1778
0
VERTEX
8
100
10
26.2890
20
56.5150
0
VERTEX
8
100
10
27.1780
20
56.5150
0
SEQEND
0
POLYLINE
8
100
66
1
40
0.1778
41
0.1778
0
VERTEX
8
100
10
29.3370
20
56.6420
0
VERTEX
8
100
10
31.3690
20
56.6420
0
SEQEND
0
POLYLINE
8
100
66
1
40
0.1778
41
0.1778
0
VERTEX
8
100
10
30.8610
20
56.6420
0
VERTEX
8
100
10
32.6390
20
56.6420
0
SEQEND
0
POLYLINE
8
100
66
1
40
0.7620
41
0.7620
0
VERTEX
8
100
10
32.8930
20
55.8800
0
VERTEX
8
100
10
42.7990
20
55.8800
0
SEQEND
0
POLYLINE
8
100
66
1
40
0.7620
41
0.7620
0
VERTEX
8
100
10
41.2750
20
55.8800
0
VERTEX
8
100
10
56.0070
20
55.8800
0
SEQEND
0
POLYLINE
8
100
66
1
40
0.7620
41
0.7620
0
VERTEX
8
100
10
56.0070
20
84.8360
0
VERTEX
8
100
10
56.0070
20
87.3760
0
SEQEND
0
POLYLINE
8
100
66
1
40
0.7620
41
0.7620
0
VERTEX
8
100
10
56.0070
20
86.7410
0
VERTEX
8
100
10
56.0070
20
99.5680
0
SEQEND
0
POLYLINE
8
100
66
1
40
0.7620
41
0.7620
0
VERTEX
8
100
10
56.0070
20
80.6450
0
VERTEX
8
100
10
56.0070
20
86.3600
0
SEQEND
0
POLYLINE
8
100
66
1
40
0.7620
41
0.7620
0
VERTEX
8
100
10
56.0070
20
55.8800
0
VERTEX
8
100
10
56.0070
20
82.8040
0
SEQEND
0
POLYLINE
8
100
66
1
40
0.1778
41
0.1778
0
VERTEX
8
100
10
19.4310
20
56.5150
0
VERTEX
8
100
10
26.4160
20
56.5150
0
SEQEND
0
POLYLINE
8
100
66
1
40
0.7620
41
0.7620
0
VERTEX
8
100
10
55.8800
20
111.1250
0
VERTEX
8
100
10
55.8800
20
121.9200
0
SEQEND
0
POLYLINE
8
100
66
1
40
0.1778
41
0.1778
0
VERTEX
8
100
10
31.1150
20
57.2770
0
VERTEX
8
100
10
33.4010
20
57.2770
0
SEQEND
0
POLYLINE
8
100
66
1
40
0.7620
41
0.7620
0
VERTEX
8
100
10
57.7850
20
94.6150
0
VERTEX
8
100
10
57.7850
20
100.3300
0
SEQEND
0
POLYLINE
8
100
66
1
40
0.1778
41
0.1778
0
VERTEX
8
100
10
27.8130
20
58.4200
0
VERTEX
8
100
10
28.8290
20
58.4200
0
SEQEND
0
POLYLINE
8
100
66
1
40
0.4064
41
0.4064
0
VERTEX
8
100
10
58.9280
20
37.4650
0
VERTEX
8
100
10
58.9280
20
38.9890
0
SEQEND
0
POLYLINE
8
100
66
1
40
0.1778
41
0.1778
0
VERTEX
8
100
10
59.4360
20
94.1070
0
VERTEX
8
100
10
59.4360
20
96.5200
0
SEQEND
0
POLYLINE
8
100
66
1
40
0.1778
41
0.1778
0
VERTEX
8
100
10
59.0042
20
80.0354
0
VERTEX
8
100
10
60.1980
20
81.2292
0
SEQEND
0
POLYLINE
8
100
66
1
40
0.1778
41
0.1778
0
VERTEX
8
100
10
58.2930
20
78.5368
0
VERTEX
8
100
10
60.6552
20
80.8990
0
SEQEND
0
POLYLINE
8
100
66
1
40
0.1778
41
0.1778
0
VERTEX
8
100
10
58.5724
20
77.5208
0
VERTEX
8
100
10
61.0870
20
80.0354
0
SEQEND
0
POLYLINE
8
100
66
1
40
0.1778
41
0.1778
0
VERTEX
8
100
10
58.4200
20
93.0910
0
VERTEX
8
100
10
59.4360
20
94.1070
0
SEQEND
0
POLYLINE
8
100
66
1
40
0.7620
41
0.7620
0
VERTEX
8
100
10
29.3370
20
58.4200
0
VERTEX
8
100
10
32.8930
20
58.4200
0
SEQEND
0
POLYLINE
8
100
66
1
40
0.7620
41
0.7620
0
VERTEX
8
100
10
59.6900
20
93.3450
0
VERTEX
8
100
10
59.6900
20
99.0600
0
SEQEND
0
POLYLINE
8
100
66
1
40
0.1778
41
0.1778
0
VERTEX
8
100
10
23.3680
20
60.4520
0
VERTEX
8
100
10
29.7180
20
60.4520
0
SEQEND
0
POLYLINE
8
100
66
1
40
0.1778
41
0.1778
0
VERTEX
8
100
10
24.8920
20
60.0710
0
VERTEX
8
100
10
29.8450
20
60.0710
0
SEQEND
0
POLYLINE
8
100
66
1
40
0.1778
41
0.1778
0
VERTEX
8
100
10
60.1980
20
81.2292
0
VERTEX
8
100
10
60.1980
20
82.5500
0
SEQEND
0
POLYLINE
8
100
66
1
40
0.1778
41
0.1778
0
VERTEX
8
100
10
60.6552
20
80.8990
0
VERTEX
8
100
10
60.6552
20
82.4992
0
SEQEND
0
POLYLINE
8
100
66
1
40
0.1778
41
0.1778
0
VERTEX
8
100
10
61.0870
20
80.0354
0
VERTEX
8
100
10
61.0870
20
82.4230
0
SEQEND
0
POLYLINE
8
100
66
1
40
0.1778
41
0.1778
0
VERTEX
8
100
10
60.1980
20
82.5500
0
VERTEX
8
100
10
60.9600
20
83.3120
0
SEQEND
0
POLYLINE
8
100
66
1
40
0.1778
41
0.1778
0
VERTEX
8
100
10
60.6552
20
82.4992
0
VERTEX
8
100
10
61.1124
20
82.9564
0
SEQEND
0
POLYLINE
8
100
66
1
40
0.1778
41
0.1778
0
VERTEX
8
100
10
54.2290
20
61.5950
0
VERTEX
8
100
10
95.8850
20
61.5950
0
SEQEND
0
POLYLINE
8
100
66
1
40
0.1778
41
0.1778
0
VERTEX
8
100
10
93.0910
20
62.1030
0
VERTEX
8
100
10
96.0120
20
62.1030
0
SEQEND
0
POLYLINE
8
100
66
1
40
0.1778
41
0.1778
0
VERTEX
8
100
10
54.8640
20
62.1030
0
VERTEX
8
100
10
93.0910
20
62.1030
0
SEQEND
0
POLYLINE
8
100
66
1
40
0.1778
41
0.1778
0
VERTEX
8
100
10
96.0120
20
62.1030
0
VERTEX
8
100
10
96.1390
20
62.1030
0
SEQEND
0
POLYLINE
8
100
66
1
40
0.1778
41
0.1778
0
VERTEX
8
100
10
50.9778
20
62.1030
0
VERTEX
8
100
10
55.3466
20
62.1030
0
SEQEND
0
POLYLINE
8
100
66
1
40
0.1778
41
0.1778
0
VERTEX
8
100
10
50.5968
20
61.5950
0
VERTEX
8
100
10
54.4322
20
61.5950
0
SEQEND
0
POLYLINE
8
100
66
1
40
0.1778
41
0.1778
0
VERTEX
8
100
10
53.9750
20
62.6110
0
VERTEX
8
100
10
54.8640
20
62.6110
0
SEQEND
0
POLYLINE
8
100
66
1
40
0.1778
41
0.1778
0
VERTEX
8
100
10
54.7370
20
62.6110
0
VERTEX
8
100
10
96.3930
20
62.6110
0
SEQEND
0
POLYLINE
8
100
66
1
40
0.1778
41
0.1778
0
VERTEX
8
100
10
36.4490
20
62.1030
0
VERTEX
8
100
10
38.8620
20
62.1030
0
SEQEND
0
POLYLINE
8
100
66
1
40
0.4064
41
0.4064
0
VERTEX
8
100
10
26.1620
20
62.2300
0
VERTEX
8
100
10
28.5750
20
62.2300
0
SEQEND
0
POLYLINE
8
100
66
1
40
0.1778
41
0.1778
0
VERTEX
8
100
10
38.8620
20
62.7380
0
VERTEX
8
100
10
42.9260
20
62.7380
0
SEQEND
0
POLYLINE
8
100
66
1
40
0.7620
41
0.7620
0
VERTEX
8
100
10
42.7990
20
62.7380
0
VERTEX
8
100
10
49.9110
20
62.7380
0
SEQEND
0
POLYLINE
8
100
66
1
40
0.7620
41
0.7620
0
VERTEX
8
100
10
49.5300
20
62.7380
0
VERTEX
8
100
10
56.0070
20
62.7380
0
SEQEND
0
POLYLINE
8
100
66
1
40
0.1778
41
0.1778
0
VERTEX
8
100
10
20.8280
20
61.5950
0
VERTEX
8
100
10
22.8600
20
61.5950
0
SEQEND
0
POLYLINE
8
100
66
1
40
0.1778
41
0.1778
0
VERTEX
8
100
10
20.1930
20
62.8650
0
VERTEX
8
100
10
22.3520
20
62.8650
0
SEQEND
0
POLYLINE
8
100
66
1
40
0.1778
41
0.1778
0
VERTEX
8
100
10
27.9400
20
62.1030
0
VERTEX
8
100
10
36.4490
20
62.1030
0
SEQEND
0
POLYLINE
8
100
66
1
40
0.1778
41
0.1778
0
VERTEX
8
100
10
61.5950
20
92.4560
0
VERTEX
8
100
10
61.5950
20
98.0440
0
SEQEND
0
POLYLINE
8
100
66
1
40
0.1778
41
0.1778
0
VERTEX
8
100
10
61.5950
20
98.0440
0
VERTEX
8
100
10
62.9920
20
99.4410
0
SEQEND
0
POLYLINE
8
100
66
1
40
0.1778
41
0.1778
0
VERTEX
8
100
10
54.6100
20
63.1190
0
VERTEX
8
100
10
55.4990
20
63.1190
0
SEQEND
0
POLYLINE
8
100
66
1
40
0.1778
41
0.1778
0
VERTEX
8
100
10
55.3720
20
63.1190
0
VERTEX
8
100
10
96.6470
20
63.1190
0
SEQEND
0
POLYLINE
8
100
66
1
40
0.1778
41
0.1778
0
VERTEX
8
100
10
55.7530
20
63.6270
0
VERTEX
8
100
10
88.7730
20
63.6270
0
SEQEND
0
POLYLINE
8
100
66
1
40
0.1778
41
0.1778
0
VERTEX
8
100
10
37.5920
20
63.3730
0
VERTEX
8
100
10
38.9890
20
63.3730
0
SEQEND
0
POLYLINE
8
100
66
1
40
0.1778
41
0.1778
0
VERTEX
8
100
10
34.6710
20
63.5000
0
VERTEX
8
100
10
35.6870
20
63.5000
0
SEQEND
0
POLYLINE
8
100
66
1
40
0.4064
41
0.4064
0
VERTEX
8
100
10
63.1190
20
30.3530
0
VERTEX
8
100
10
63.1190
20
38.2270
0
SEQEND
0
POLYLINE
8
100
66
1
40
0.1778
41
0.1778
0
VERTEX
8
100
10
23.1140
20
64.1350
0
VERTEX
8
100
10
25.9080
20
64.1350
0
SEQEND
0
POLYLINE
8
100
66
1
40
0.1778
41
0.1778
0
VERTEX
8
100
10
37.0840
20
64.7700
0
VERTEX
8
100
10
40.6400
20
64.7700
0
SEQEND
0
POLYLINE
8
100
66
1
40
0.1778
41
0.1778
0
VERTEX
8
100
10
34.4170
20
64.7700
0
VERTEX
8
100
10
37.0840
20
64.7700
0
SEQEND
0
POLYLINE
8
100
66
1
40
0.1778
41
0.1778
0
VERTEX
8
100
10
33.2740
20
66.0400
0
VERTEX
8
100
10
34.2900
20
66.0400
0
SEQEND
0
POLYLINE
8
100
66
1
40
0.1778
41
0.1778
0
VERTEX
8
100
10
28.5750
20
64.7700
0
VERTEX
8
100
10
30.2260
20
64.7700
0
SEQEND
0
POLYLINE
8
100
66
1
40
0.1778
41
0.1778
0
VERTEX
8
100
10
28.5750
20
66.0400
0
VERTEX
8
100
10
29.8450
20
66.0400
0
SEQEND
0
POLYLINE
8
100
66
1
40
0.1778
41
0.1778
0
VERTEX
8
100
10
23.3680
20
65.4050
0
VERTEX
8
100
10
25.2730
20
65.4050
0
SEQEND
0
POLYLINE
8
100
66
1
40
0.1778
41
0.1778
0
VERTEX
8
100
10
27.1780
20
64.7700
0
VERTEX
8
100
10
37.0840
20
64.7700
0
SEQEND
0
POLYLINE
8
100
66
1
40
0.1778
41
0.1778
0
VERTEX
8
100
10
65.4050
20
89.0270
0
VERTEX
8
100
10
65.4050
20
94.8690
0
SEQEND
0
POLYLINE
8
100
66
1
40
0.1778
41
0.1778
0
VERTEX
8
100
10
66.0400
20
78.4860
0
VERTEX
8
100
10
66.0400
20
84.3280
0
SEQEND
0
POLYLINE
8
100
66
1
40
0.4064
41
0.4064
0
VERTEX
8
100
10
26.5430
20
67.3100
0
VERTEX
8
100
10
28.3210
20
67.3100
0
SEQEND
0
POLYLINE
8
100
66
1
40
0.1778
41
0.1778
0
VERTEX
8
100
10
32.7660
20
67.3100
0
VERTEX
8
100
10
34.2900
20
67.3100
0
SEQEND
0
POLYLINE
8
100
66
1
40
0.4064
41
0.4064
0
VERTEX
8
100
10
21.2090
20
66.6750
0
VERTEX
8
100
10
22.8600
20
66.6750
0
SEQEND
0
POLYLINE
8
100
66
1
40
0.4064
41
0.4064
0
VERTEX
8
100
10
19.5580
20
66.6750
0
VERTEX
8
100
10
21.2090
20
66.6750
0
SEQEND
0
POLYLINE
8
100
66
1
40
0.1778
41
0.1778
0
VERTEX
8
100
10
27.0510
20
68.5800
0
VERTEX
8
100
10
28.4480
20
68.5800
0
SEQEND
0
POLYLINE
8
100
66
1
40
0.4064
41
0.4064
0
VERTEX
8
100
10
34.5440
20
68.5800
0
VERTEX
8
100
10
36.3220
20
68.5800
0
SEQEND
0
POLYLINE
8
100
66
1
40
0.4064
41
0.4064
0
VERTEX
8
100
10
68.1990
20
25.2730
0
VERTEX
8
100
10
68.1990
20
26.9240
0
SEQEND
0
POLYLINE
8
100
66
1
40
0.4064
41
0.4064
0
VERTEX
8
100
10
68.1990
20
29.2100
0
VERTEX
8
100
10
68.1990
20
30.7340
0
SEQEND
0
POLYLINE
8
100
66
1
40
0.4064
41
0.4064
0
VERTEX
8
100
10
67.9450
20
92.5830
0
VERTEX
8
100
10
67.9450
20
94.9960
0
SEQEND
0
POLYLINE
8
100
66
1
40
0.7620
41
0.7620
0
VERTEX
8
100
10
29.3370
20
68.5800
0
VERTEX
8
100
10
36.3220
20
68.5800
0
SEQEND
0
POLYLINE
8
100
66
1
40
0.7620
41
0.7620
0
VERTEX
8
100
10
36.3220
20
68.5800
0
VERTEX
8
100
10
42.7990
20
68.5800
0
SEQEND
0
POLYLINE
8
100
66
1
40
0.4064
41
0.4064
0
VERTEX
8
100
10
23.1140
20
67.9450
0
VERTEX
8
100
10
25.9080
20
67.9450
0
SEQEND
0
POLYLINE
8
100
66
1
40
0.1778
41
0.1778
0
VERTEX
8
100
10
69.2150
20
90.5510
0
VERTEX
8
100
10
69.2150
20
96.5200
0
SEQEND
0
POLYLINE
8
100
66
1
40
0.1778
41
0.1778
0
VERTEX
8
100
10
69.2150
20
96.5200
0
VERTEX
8
100
10
70.3580
20
97.6630
0
SEQEND
0
POLYLINE
8
100
66
1
40
0.1778
41
0.1778
0
VERTEX
8
100
10
41.1734
20
70.5358
0
VERTEX
8
100
10
41.8846
20
70.5358
0
SEQEND
0
POLYLINE
8
100
66
1
40
0.1778
41
0.1778
0
VERTEX
8
100
10
55.0672
20
70.5358
0
VERTEX
8
100
10
56.0578
20
70.5358
0
SEQEND
0
POLYLINE
8
100
66
1
40
0.1778
41
0.1778
0
VERTEX
8
100
10
70.6120
20
88.9000
0
VERTEX
8
100
10
70.6120
20
94.7420
0
SEQEND
0
POLYLINE
8
100
66
1
40
0.1778
41
0.1778
0
VERTEX
8
100
10
49.4284
20
71.2216
0
VERTEX
8
100
10
50.9016
20
71.2216
0
SEQEND
0
POLYLINE
8
100
66
1
40
0.4064
41
0.4064
0
VERTEX
8
100
10
90.1700
20
71.7550
0
VERTEX
8
100
10
91.8210
20
71.7550
0
SEQEND
0
POLYLINE
8
100
66
1
40
0.1778
41
0.1778
0
VERTEX
8
100
10
94.2340
20
71.7550
0
VERTEX
8
100
10
96.9010
20
71.7550
0
SEQEND
0
POLYLINE
8
100
66
1
40
0.1778
41
0.1778
0
VERTEX
8
100
10
38.3794
20
71.0184
0
VERTEX
8
100
10
40.1574
20
71.0184
0
SEQEND
0
POLYLINE
8
100
66
1
40
0.1778
41
0.1778
0
VERTEX
8
100
10
56.4896
20
71.0184
0
VERTEX
8
100
10
58.5470
20
71.0184
0
SEQEND
0
POLYLINE
8
100
66
1
40
0.4064
41
0.4064
0
VERTEX
8
100
10
72.3900
20
116.2050
0
VERTEX
8
100
10
72.3900
20
121.2850
0
SEQEND
0
POLYLINE
8
100
66
1
40
0.4064
41
0.4064
0
VERTEX
8
100
10
72.3900
20
106.6800
0
VERTEX
8
100
10
72.3900
20
111.1250
0
SEQEND
0
POLYLINE
8
100
66
1
40
0.7620
41
0.7620
0
VERTEX
8
100
10
46.9900
20
71.1200
0
VERTEX
8
100
10
49.4030
20
71.1200
0
SEQEND
0
POLYLINE
8
100
66
1
40
0.7620
41
0.7620
0
VERTEX
8
100
10
49.0220
20
71.1200
0
VERTEX
8
100
10
49.9110
20
71.1200
0
SEQEND
0
POLYLINE
8
100
66
1
40
0.1778
41
0.1778
0
VERTEX
8
100
10
26.6700
20
71.8820
0
VERTEX
8
100
10
33.7820
20
71.8820
0
SEQEND
0
POLYLINE
8
100
66
1
40
1.2700
41
1.2700
0
VERTEX
8
100
10
125.2220
20
71.7550
0
VERTEX
8
100
10
127.2540
20
71.7550
0
SEQEND
0
POLYLINE
8
100
66
1
40
0.1778
41
0.1778
0
VERTEX
8
100
10
42.5450
20
72.7964
0
VERTEX
8
100
10
43.2816
20
72.7964
0
SEQEND
0
POLYLINE
8
100
66
1
40
0.1778
41
0.1778
0
VERTEX
8
100
10
54.8132
20
73.5330
0
VERTEX
8
100
10
56.2610
20
73.5330
0
SEQEND
0
POLYLINE
8
100
66
1
40
0.7620
41
0.7620
0
VERTEX
8
100
10
40.2590
20
72.7710
0
VERTEX
8
100
10
43.3070
20
72.7710
0
SEQEND
0
POLYLINE
8
100
66
1
40
0.7620
41
0.7620
0
VERTEX
8
100
10
43.3070
20
72.7710
0
VERTEX
8
100
10
46.9900
20
72.7710
0
SEQEND
0
POLYLINE
8
100
66
1
40
1.2700
41
1.2700
0
VERTEX
8
100
10
124.4600
20
73.9140
0
VERTEX
8
100
10
127.3810
20
73.9140
0
SEQEND
0
POLYLINE
8
100
66
1
40
1.2700
41
1.2700
0
VERTEX
8
100
10
124.4600
20
72.8980
0
VERTEX
8
100
10
127.1270
20
72.8980
0
SEQEND
0
POLYLINE
8
100
66
1
40
0.5080
41
0.5080
0
VERTEX
8
100
10
116.4590
20
75.5650
0
VERTEX
8
100
10
118.1100
20
75.5650
0
SEQEND
0
POLYLINE
8
100
66
1
40
0.1778
41
0.1778
0
VERTEX
8
100
10
42.0878
20
74.0156
0
VERTEX
8
100
10
44.1198
20
74.0156
0
SEQEND
0
POLYLINE
8
100
66
1
40
0.1778
41
0.1778
0
VERTEX
8
100
10
52.0446
20
74.7522
0
VERTEX
8
100
10
53.5940
20
74.7522
0
SEQEND
0
POLYLINE
8
100
66
1
40
0.1778
41
0.1778
0
VERTEX
8
100
10
40.3352
20
74.0156
0
VERTEX
8
100
10
42.3672
20
74.0156
0
SEQEND
0
POLYLINE
8
100
66
1
40
0.4064
41
0.4064
0
VERTEX
8
100
10
99.0600
20
75.5650
0
VERTEX
8
100
10
101.6000
20
75.5650
0
SEQEND
0
POLYLINE
8
100
66
1
40
1.2700
41
1.2700
0
VERTEX
8
100
10
130.4290
20
74.4220
0
VERTEX
8
100
10
130.8100
20
74.4220
0
SEQEND
0
POLYLINE
8
100
66
1
40
0.4064
41
0.4064
0
VERTEX
8
100
10
110.4900
20
75.5650
0
VERTEX
8
100
10
114.1730
20
75.5650
0
SEQEND
0
POLYLINE
8
100
66
1
40
0.7620
41
0.7620
0
VERTEX
8
100
10
29.3370
20
74.8030
0
VERTEX
8
100
10
40.2590
20
74.8030
0
SEQEND
0
POLYLINE
8
100
66
1
40
0.7620
41
0.7620
0
VERTEX
8
100
10
25.0190
20
74.8030
0
VERTEX
8
100
10
31.8770
20
74.8030
0
SEQEND
0
POLYLINE
8
100
66
1
40
0.7620
41
0.7620
0
VERTEX
8
100
10
22.6060
20
74.8030
0
VERTEX
8
100
10
27.3050
20
74.8030
0
SEQEND
0
POLYLINE
8
100
66
1
40
0.7620
41
0.7620
0
VERTEX
8
100
10
75.5650
20
108.5850
0
VERTEX
8
100
10
75.5650
20
111.1250
0
SEQEND
0
POLYLINE
8
100
66
1
40
0.1778
41
0.1778
0
VERTEX
8
100
10
37.9222
20
76.0222
0
VERTEX
8
100
10
40.3860
20
76.0222
0
SEQEND
0
POLYLINE
8
100
66
1
40
0.1778
41
0.1778
0
VERTEX
8
100
10
53.7972
20
76.5302
0
VERTEX
8
100
10
56.2102
20
76.5302
0
SEQEND
0
POLYLINE
8
100
66
1
40
0.1778
41
0.1778
0
VERTEX
8
100
10
40.8432
20
76.5302
0
VERTEX
8
100
10
43.2562
20
76.5302
0
SEQEND
0
POLYLINE
8
100
66
1
40
0.4064
41
0.4064
0
VERTEX
8
100
10
87.5030
20
76.2000
0
VERTEX
8
100
10
89.7890
20
76.2000
0
SEQEND
0
POLYLINE
8
100
66
1
40
0.4064
41
0.4064
0
VERTEX
8
100
10
92.2020
20
76.2000
0
VERTEX
8
100
10
96.9010
20
76.2000
0
SEQEND
0
POLYLINE
8
100
66
1
40
0.4064
41
0.4064
0
VERTEX
8
100
10
99.0600
20
76.8858
0
VERTEX
8
100
10
101.6000
20
76.8858
0
SEQEND
0
POLYLINE
8
100
66
1
40
0.1778
41
0.1778
0
VERTEX
8
100
10
98.2980
20
76.2000
0
VERTEX
8
100
10
98.9330
20
76.2000
0
SEQEND
0
POLYLINE
8
100
66
1
40
0.4064
41
0.4064
0
VERTEX
8
100
10
75.6920
20
29.7180
0
VERTEX
8
100
10
75.6920
20
31.2420
0
SEQEND
0
POLYLINE
8
100
66
1
40
0.7620
41
0.7620
0
VERTEX
8
100
10
43.3070
20
76.5810
0
VERTEX
8
100
10
46.9900
20
76.5810
0
SEQEND
0
POLYLINE
8
100
66
1
40
0.7620
41
0.7620
0
VERTEX
8
100
10
49.9110
20
76.4540
0
VERTEX
8
100
10
53.8480
20
76.4540
0
SEQEND
0
POLYLINE
8
100
66
1
40
0.7620
41
0.7620
0
VERTEX
8
100
10
51.9430
20
76.4540
0
VERTEX
8
100
10
56.0070
20
76.4540
0
SEQEND
0
POLYLINE
8
100
66
1
40
0.7620
41
0.7620
0
VERTEX
8
100
10
77.0890
20
78.9940
0
VERTEX
8
100
10
77.0890
20
89.9160
0
SEQEND
0
POLYLINE
8
100
66
1
40
0.7620
41
0.7620
0
VERTEX
8
100
10
76.2000
20
76.2000
0
VERTEX
8
100
10
87.5030
20
76.2000
0
SEQEND
0
POLYLINE
8
100
66
1
40
0.1778
41
0.1778
0
VERTEX
8
100
10
76.8350
20
92.3290
0
VERTEX
8
100
10
76.8350
20
96.7740
0
SEQEND
0
POLYLINE
8
100
66
1
40
0.1778
41
0.1778
0
VERTEX
8
100
10
76.4540
20
99.4410
0
VERTEX
8
100
10
78.1050
20
97.7900
0
SEQEND
0
POLYLINE
8
100
66
1
40
0.1778
41
0.1778
0
VERTEX
8
100
10
75.9460
20
97.6630
0
VERTEX
8
100
10
76.8350
20
96.7740
0
SEQEND
0
POLYLINE
8
100
66
1
40
0.1778
41
0.1778
0
VERTEX
8
100
10
76.8350
20
92.3290
0
VERTEX
8
100
10
77.5970
20
91.5670
0
SEQEND
0
POLYLINE
8
100
66
1
40
0.1778
41
0.1778
0
VERTEX
8
100
10
56.5658
20
78.5368
0
VERTEX
8
100
10
58.2930
20
78.5368
0
SEQEND
0
POLYLINE
8
100
66
1
40
0.1778
41
0.1778
0
VERTEX
8
100
10
56.7182
20
77.5208
0
VERTEX
8
100
10
58.5724
20
77.5208
0
SEQEND
0
POLYLINE
8
100
66
1
40
0.1778
41
0.1778
0
VERTEX
8
100
10
37.7698
20
77.5208
0
VERTEX
8
100
10
40.1320
20
77.5208
0
SEQEND
0
POLYLINE
8
100
66
1
40
0.1778
41
0.1778
0
VERTEX
8
100
10
37.5158
20
78.0288
0
VERTEX
8
100
10
40.3098
20
78.0288
0
SEQEND
0
POLYLINE
8
100
66
1
40
0.1778
41
0.1778
0
VERTEX
8
100
10
35.7632
20
78.5368
0
VERTEX
8
100
10
40.2336
20
78.5368
0
SEQEND
0
POLYLINE
8
100
66
1
40
0.4064
41
0.4064
0
VERTEX
8
100
10
27.5590
20
77.7240
0
VERTEX
8
100
10
29.7180
20
77.7240
0
SEQEND
0
POLYLINE
8
100
66
1
40
0.4064
41
0.4064
0
VERTEX
8
100
10
19.5580
20
77.7240
0
VERTEX
8
100
10
25.2730
20
77.7240
0
SEQEND
0
POLYLINE
8
100
66
1
40
0.1778
41
0.1778
0
VERTEX
8
100
10
38.8620
20
78.1050
0
VERTEX
8
100
10
44.8310
20
78.1050
0
SEQEND
0
POLYLINE
8
100
66
1
40
0.1778
41
0.1778
0
VERTEX
8
100
10
78.1050
20
94.9960
0
VERTEX
8
100
10
78.1050
20
97.7900
0
SEQEND
0
POLYLINE
8
100
66
1
40
0.4064
41
0.4064
0
VERTEX
8
100
10
122.5550
20
78.7400
0
VERTEX
8
100
10
124.0790
20
78.7400
0
SEQEND
0
POLYLINE
8
100
66
1
40
0.1778
41
0.1778
0
VERTEX
8
100
10
56.7944
20
80.0354
0
VERTEX
8
100
10
59.0042
20
80.0354
0
SEQEND
0
POLYLINE
8
100
66
1
40
0.1778
41
0.1778
0
VERTEX
8
100
10
41.0210
20
79.5020
0
VERTEX
8
100
10
44.4754
20
79.5020
0
SEQEND
0
POLYLINE
8
100
66
1
40
0.1778
41
0.1778
0
VERTEX
8
100
10
54.0766
20
79.0194
0
VERTEX
8
100
10
56.5658
20
79.0194
0
SEQEND
0
POLYLINE
8
100
66
1
40
0.7620
41
0.7620
0
VERTEX
8
100
10
56.1340
20
78.9940
0
VERTEX
8
100
10
77.0890
20
78.9940
0
SEQEND
0
POLYLINE
8
100
66
1
40
0.7620
41
0.7620
0
VERTEX
8
100
10
78.7400
20
105.4100
0
VERTEX
8
100
10
78.7400
20
116.2050
0
SEQEND
0
POLYLINE
8
100
66
1
40
0.1778
41
0.1778
0
VERTEX
8
100
10
79.7560
20
91.5670
0
VERTEX
8
100
10
80.6450
20
92.4560
0
SEQEND
0
POLYLINE
8
100
66
1
40
0.1778
41
0.1778
0
VERTEX
8
100
10
46.1518
20
81.6356
0
VERTEX
8
100
10
47.4726
20
81.6356
0
SEQEND
0
POLYLINE
8
100
66
1
40
0.1778
41
0.1778
0
VERTEX
8
100
10
53.7718
20
80.6196
0
VERTEX
8
100
10
54.2290
20
80.6196
0
SEQEND
0
POLYLINE
8
100
66
1
40
0.4064
41
0.4064
0
VERTEX
8
100
10
90.1700
20
80.6450
0
VERTEX
8
100
10
91.8210
20
80.6450
0
SEQEND
0
POLYLINE
8
100
66
1
40
0.1778
41
0.1778
0
VERTEX
8
100
10
94.2340
20
80.6450
0
VERTEX
8
100
10
96.9010
20
80.6450
0
SEQEND
0
POLYLINE
8
100
66
1
40
0.7620
41
0.7620
0
VERTEX
8
100
10
49.9110
20
80.6450
0
VERTEX
8
100
10
53.8480
20
80.6450
0
SEQEND
0
POLYLINE
8
100
66
1
40
0.7620
41
0.7620
0
VERTEX
8
100
10
47.3710
20
81.6610
0
VERTEX
8
100
10
49.9110
20
81.6610
0
SEQEND
0
POLYLINE
8
100
66
1
40
0.7620
41
0.7620
0
VERTEX
8
100
10
46.9900
20
81.6610
0
VERTEX
8
100
10
47.4980
20
81.6610
0
SEQEND
0
POLYLINE
8
100
66
1
40
0.7620
41
0.7620
0
VERTEX
8
100
10
53.8480
20
80.6450
0
VERTEX
8
100
10
56.0070
20
80.6450
0
SEQEND
0
POLYLINE
8
100
66
1
40
0.7620
41
0.7620
0
VERTEX
8
100
10
25.0190
20
81.5340
0
VERTEX
8
100
10
40.2590
20
81.5340
0
SEQEND
0
POLYLINE
8
100
66
1
40
0.1778
41
0.1778
0
VERTEX
8
100
10
80.6450
20
92.4560
0
VERTEX
8
100
10
80.6450
20
94.7420
0
SEQEND
0
POLYLINE
8
100
66
1
40
0.1778
41
0.1778
0
VERTEX
8
100
10
55.0418
20
82.5500
0
VERTEX
8
100
10
56.1340
20
82.5500
0
SEQEND
0
POLYLINE
8
100
66
1
40
0.1778
41
0.1778
0
VERTEX
8
100
10
42.2910
20
82.5500
0
VERTEX
8
100
10
44.3992
20
82.5500
0
SEQEND
0
POLYLINE
8
100
66
1
40
0.1778
41
0.1778
0
VERTEX
8
100
10
40.6400
20
82.5500
0
VERTEX
8
100
10
42.5450
20
82.5500
0
SEQEND
0
POLYLINE
8
100
66
1
40
0.1778
41
0.1778
0
VERTEX
8
100
10
56.6928
20
82.0420
0
VERTEX
8
100
10
58.4454
20
82.0420
0
SEQEND
0
POLYLINE
8
100
66
1
40
0.1778
41
0.1778
0
VERTEX
8
100
10
41.0972
20
82.0420
0
VERTEX
8
100
10
42.1386
20
82.0420
0
SEQEND
0
POLYLINE
8
100
66
1
40
0.4064
41
0.4064
0
VERTEX
8
100
10
83.1850
20
94.8690
0
VERTEX
8
100
10
83.1850
20
96.7740
0
SEQEND
0
POLYLINE
8
100
66
1
40
0.4064
41
0.4064
0
VERTEX
8
100
10
83.1850
20
96.7740
0
VERTEX
8
100
10
83.1850
20
97.5360
0
SEQEND
0
POLYLINE
8
100
66
1
40
0.4064
41
0.4064
0
VERTEX
8
100
10
83.1850
20
97.5360
0
VERTEX
8
100
10
83.8200
20
98.1710
0
SEQEND
0
POLYLINE
8
100
66
1
40
0.1778
41
0.1778
0
VERTEX
8
100
10
58.4200
20
82.0420
0
VERTEX
8
100
10
60.7060
20
82.0420
0
SEQEND
0
POLYLINE
8
100
66
1
40
0.4064
41
0.4064
0
VERTEX
8
100
10
25.4000
20
84.5312
0
VERTEX
8
100
10
27.8130
20
84.5312
0
SEQEND
0
POLYLINE
8
100
66
1
40
0.4064
41
0.4064
0
VERTEX
8
100
10
22.9870
20
83.5660
0
VERTEX
8
100
10
25.2730
20
83.5660
0
SEQEND
0
POLYLINE
8
100
66
1
40
0.1778
41
0.1778
0
VERTEX
8
100
10
27.8130
20
83.5660
0
VERTEX
8
100
10
30.7340
20
83.5660
0
SEQEND
0
POLYLINE
8
100
66
1
40
0.4064
41
0.4064
0
VERTEX
8
100
10
27.6860
20
84.5312
0
VERTEX
8
100
10
33.0200
20
84.5312
0
SEQEND
0
POLYLINE
8
100
66
1
40
0.4064
41
0.4064
0
VERTEX
8
100
10
120.0150
20
84.7090
0
VERTEX
8
100
10
121.2850
20
84.7090
0
SEQEND
0
POLYLINE
8
100
66
1
40
0.1778
41
0.1778
0
VERTEX
8
100
10
84.7090
20
87.7570
0
VERTEX
8
100
10
86.3600
20
89.4080
0
SEQEND
0
POLYLINE
8
100
66
1
40
0.1778
41
0.1778
0
VERTEX
8
100
10
84.8360
20
87.3760
0
VERTEX
8
100
10
85.3440
20
87.8840
0
SEQEND
0
POLYLINE
8
100
66
1
40
0.7620
41
0.7620
0
VERTEX
8
100
10
49.9110
20
84.8360
0
VERTEX
8
100
10
56.0070
20
84.8360
0
SEQEND
0
POLYLINE
8
100
66
1
40
0.7620
41
0.7620
0
VERTEX
8
100
10
40.2590
20
84.8360
0
VERTEX
8
100
10
51.5620
20
84.8360
0
SEQEND
0
POLYLINE
8
100
66
1
40
0.4064
41
0.4064
0
VERTEX
8
100
10
23.8760
20
85.4710
0
VERTEX
8
100
10
25.2730
20
85.4710
0
SEQEND
0
POLYLINE
8
100
66
1
40
0.4064
41
0.4064
0
VERTEX
8
100
10
85.9790
20
37.4650
0
VERTEX
8
100
10
85.9790
20
38.9890
0
SEQEND
0
POLYLINE
8
100
66
1
40
0.1778
41
0.1778
0
VERTEX
8
100
10
86.3600
20
89.4080
0
VERTEX
8
100
10
86.3600
20
89.7890
0
SEQEND
0
POLYLINE
8
100
66
1
40
0.1778
41
0.1778
0
VERTEX
8
100
10
86.3600
20
89.7890
0
VERTEX
8
100
10
86.3600
20
90.4240
0
SEQEND
0
POLYLINE
8
100
66
1
40
0.1778
41
0.1778
0
VERTEX
8
100
10
86.3600
20
90.4240
0
VERTEX
8
100
10
86.3600
20
108.9660
0
SEQEND
0
POLYLINE
8
100
66
1
40
0.4064
41
0.4064
0
VERTEX
8
100
10
85.9790
20
30.9880
0
VERTEX
8
100
10
85.9790
20
33.1470
0
SEQEND
0
POLYLINE
8
100
66
1
40
0.4064
41
0.4064
0
VERTEX
8
100
10
85.9790
20
33.2740
0
VERTEX
8
100
10
85.9790
20
37.0840
0
SEQEND
0
POLYLINE
8
100
66
1
40
0.1778
41
0.1778
0
VERTEX
8
100
10
85.3440
20
87.8840
0
VERTEX
8
100
10
86.9950
20
89.5350
0
SEQEND
0
POLYLINE
8
100
66
1
40
0.1778
41
0.1778
0
VERTEX
8
100
10
46.8630
20
85.4710
0
VERTEX
8
100
10
61.8490
20
85.4710
0
SEQEND
0
POLYLINE
8
100
66
1
40
0.1778
41
0.1778
0
VERTEX
8
100
10
84.2010
20
87.7570
0
VERTEX
8
100
10
84.7090
20
87.7570
0
SEQEND
0
POLYLINE
8
100
66
1
40
0.1778
41
0.1778
0
VERTEX
8
100
10
65.4050
20
87.7570
0
VERTEX
8
100
10
84.5820
20
87.7570
0
SEQEND
0
POLYLINE
8
100
66
1
40
0.1778
41
0.1778
0
VERTEX
8
100
10
65.5320
20
87.3760
0
VERTEX
8
100
10
84.8360
20
87.3760
0
SEQEND
0
POLYLINE
8
100
66
1
40
0.4064
41
0.4064
0
VERTEX
8
100
10
27.8130
20
87.3760
0
VERTEX
8
100
10
30.7340
20
87.3760
0
SEQEND
0
POLYLINE
8
100
66
1
40
0.1778
41
0.1778
0
VERTEX
8
100
10
65.6590
20
86.9950
0
VERTEX
8
100
10
90.5510
20
86.9950
0
SEQEND
0
POLYLINE
8
100
66
1
40
0.6350
41
0.6350
0
VERTEX
8
100
10
116.2050
20
87.6300
0
VERTEX
8
100
10
118.7450
20
87.6300
0
SEQEND
0
POLYLINE
8
100
66
1
40
0.4064
41
0.4064
0
VERTEX
8
100
10
60.0710
20
87.3760
0
VERTEX
8
100
10
61.5950
20
87.3760
0
SEQEND
0
POLYLINE
8
100
66
1
40
0.4064
41
0.4064
0
VERTEX
8
100
10
56.0070
20
87.3760
0
VERTEX
8
100
10
57.5310
20
87.3760
0
SEQEND
0
POLYLINE
8
100
66
1
40
0.1778
41
0.1778
0
VERTEX
8
100
10
87.2490
20
118.3640
0
VERTEX
8
100
10
87.2490
20
124.0790
0
SEQEND
0
POLYLINE
8
100
66
1
40
0.1778
41
0.1778
0
VERTEX
8
100
10
86.9950
20
89.5350
0
VERTEX
8
100
10
86.9950
20
104.3940
0
SEQEND
0
POLYLINE
8
100
66
1
40
0.1778
41
0.1778
0
VERTEX
8
100
10
87.2490
20
124.0790
0
VERTEX
8
100
10
88.2650
20
125.0950
0
SEQEND
0
POLYLINE
8
100
66
1
40
0.1778
41
0.1778
0
VERTEX
8
100
10
87.2490
20
118.3640
0
VERTEX
8
100
10
88.1380
20
117.4750
0
SEQEND
0
POLYLINE
8
100
66
1
40
0.1778
41
0.1778
0
VERTEX
8
100
10
86.9950
20
104.3940
0
VERTEX
8
100
10
88.0110
20
105.4100
0
SEQEND
0
POLYLINE
8
100
66
1
40
0.7620
41
0.7620
0
VERTEX
8
100
10
27.8130
20
87.3760
0
VERTEX
8
100
10
34.5440
20
87.3760
0
SEQEND
0
POLYLINE
8
100
66
1
40
0.7620
41
0.7620
0
VERTEX
8
100
10
25.0190
20
87.3760
0
VERTEX
8
100
10
28.8290
20
87.3760
0
SEQEND
0
POLYLINE
8
100
66
1
40
0.7620
41
0.7620
0
VERTEX
8
100
10
34.6710
20
87.3760
0
VERTEX
8
100
10
40.2590
20
87.3760
0
SEQEND
0
POLYLINE
8
100
66
1
40
0.7620
41
0.7620
0
VERTEX
8
100
10
40.2590
20
87.3760
0
VERTEX
8
100
10
46.9900
20
87.3760
0
SEQEND
0
POLYLINE
8
100
66
1
40
0.7620
41
0.7620
0
VERTEX
8
100
10
87.6300
20
89.9160
0
VERTEX
8
100
10
87.6300
20
98.1710
0
SEQEND
0
POLYLINE
8
100
66
1
40
1.2700
41
1.2700
0
VERTEX
8
100
10
128.7780
20
89.1540
0
VERTEX
8
100
10
131.3180
20
89.1540
0
SEQEND
0
POLYLINE
8
100
66
1
40
1.2700
41
1.2700
0
VERTEX
8
100
10
124.4600
20
88.3920
0
VERTEX
8
100
10
131.3180
20
88.3920
0
SEQEND
0
POLYLINE
8
100
66
1
40
0.1778
41
0.1778
0
VERTEX
8
100
10
36.5760
20
89.6620
0
VERTEX
8
100
10
41.6306
20
89.6620
0
SEQEND
0
POLYLINE
8
100
66
1
40
0.1778
41
0.1778
0
VERTEX
8
100
10
36.4998
20
89.2810
0
VERTEX
8
100
10
41.2496
20
89.2810
0
SEQEND
0
POLYLINE
8
100
66
1
40
0.1778
41
0.1778
0
VERTEX
8
100
10
35.5092
20
88.9000
0
VERTEX
8
100
10
40.8686
20
88.9000
0
SEQEND
0
POLYLINE
8
100
66
1
40
0.1778
41
0.1778
0
VERTEX
8
100
10
27.3050
20
89.6620
0
VERTEX
8
100
10
36.7030
20
89.6620
0
SEQEND
0
POLYLINE
8
100
66
1
40
0.1778
41
0.1778
0
VERTEX
8
100
10
27.0510
20
89.2810
0
VERTEX
8
100
10
36.5760
20
89.2810
0
SEQEND
0
POLYLINE
8
100
66
1
40
0.1778
41
0.1778
0
VERTEX
8
100
10
26.7970
20
88.9000
0
VERTEX
8
100
10
35.5600
20
88.9000
0
SEQEND
0
POLYLINE
8
100
66
1
40
0.1778
41
0.1778
0
VERTEX
8
100
10
88.6460
20
120.3960
0
VERTEX
8
100
10
88.6460
20
122.4280
0
SEQEND
0
POLYLINE
8
100
66
1
40
0.1778
41
0.1778
0
VERTEX
8
100
10
88.6460
20
119.3800
0
VERTEX
8
100
10
88.6460
20
121.0310
0
SEQEND
0
POLYLINE
8
100
66
1
40
0.1778
41
0.1778
0
VERTEX
8
100
10
89.1540
20
101.6000
0
VERTEX
8
100
10
89.1540
20
103.1240
0
SEQEND
0
POLYLINE
8
100
66
1
40
0.1778
41
0.1778
0
VERTEX
8
100
10
89.1540
20
116.2050
0
VERTEX
8
100
10
89.1540
20
117.4750
0
SEQEND
0
POLYLINE
8
100
66
1
40
0.4064
41
0.4064
0
VERTEX
8
100
10
88.7730
20
108.4580
0
VERTEX
8
100
10
88.7730
20
109.6010
0
SEQEND
0
POLYLINE
8
100
66
1
40
0.4064
41
0.4064
0
VERTEX
8
100
10
88.7730
20
106.9340
0
VERTEX
8
100
10
88.7730
20
108.5850
0
SEQEND
0
POLYLINE
8
100
66
1
40
0.4064
41
0.4064
0
VERTEX
8
100
10
89.5350
20
37.2110
0
VERTEX
8
100
10
89.5350
20
40.6400
0
SEQEND
0
POLYLINE
8
100
66
1
40
0.1778
41
0.1778
0
VERTEX
8
100
10
88.6460
20
119.3800
0
VERTEX
8
100
10
89.2810
20
118.7450
0
SEQEND
0
POLYLINE
8
100
66
1
40
0.1778
41
0.1778
0
VERTEX
8
100
10
89.1540
20
101.6000
0
VERTEX
8
100
10
90.1700
20
100.5840
0
SEQEND
0
POLYLINE
8
100
66
1
40
0.1778
41
0.1778
0
VERTEX
8
100
10
89.1540
20
116.2050
0
VERTEX
8
100
10
90.1700
20
115.1890
0
SEQEND
0
POLYLINE
8
100
66
1
40
0.4064
41
0.4064
0
VERTEX
8
100
10
88.7730
20
109.6010
0
VERTEX
8
100
10
89.4080
20
110.2360
0
SEQEND
0
POLYLINE
8
100
66
1
40
0.1778
41
0.1778
0
VERTEX
8
100
10
88.7730
20
63.6270
0
VERTEX
8
100
10
91.3130
20
66.1670
0
SEQEND
0
POLYLINE
8
100
66
1
40
0.1778
41
0.1778
0
VERTEX
8
100
10
43.9420
20
89.4080
0
VERTEX
8
100
10
58.5470
20
89.4080
0
SEQEND
0
POLYLINE
8
100
66
1
40
0.1778
41
0.1778
0
VERTEX
8
100
10
41.9100
20
90.0430
0
VERTEX
8
100
10
42.3164
20
90.0430
0
SEQEND
0
POLYLINE
8
100
66
1
40
0.1778
41
0.1778
0
VERTEX
8
100
10
35.5600
20
90.0430
0
VERTEX
8
100
10
41.9100
20
90.0430
0
SEQEND
0
POLYLINE
8
100
66
1
40
0.1778
41
0.1778
0
VERTEX
8
100
10
29.5910
20
90.0430
0
VERTEX
8
100
10
37.0840
20
90.0430
0
SEQEND
0
POLYLINE
8
100
66
1
40
1.2700
41
1.2700
0
VERTEX
8
100
10
129.1590
20
89.7890
0
VERTEX
8
100
10
132.9690
20
89.7890
0
SEQEND
0
POLYLINE
8
100
66
1
40
0.4064
41
0.4064
0
VERTEX
8
100
10
111.2520
20
89.7890
0
VERTEX
8
100
10
116.2050
20
89.7890
0
SEQEND
0
POLYLINE
8
100
66
1
40
0.4064
41
0.4064
0
VERTEX
8
100
10
109.7280
20
89.7890
0
VERTEX
8
100
10
111.2520
20
89.7890
0
SEQEND
0
POLYLINE
8
100
66
1
40
0.1778
41
0.1778
0
VERTEX
8
100
10
91.1860
20
122.6820
0
VERTEX
8
100
10
91.1860
20
124.7140
0
SEQEND
0
POLYLINE
8
100
66
1
40
0.1778
41
0.1778
0
VERTEX
8
100
10
91.1860
20
117.4750
0
VERTEX
8
100
10
91.1860
20
118.2370
0
SEQEND
0
POLYLINE
8
100
66
1
40
0.1778
41
0.1778
0
VERTEX
8
100
10
90.1700
20
114.3000
0
VERTEX
8
100
10
90.1700
20
115.1890
0
SEQEND
0
POLYLINE
8
100
66
1
40
0.4064
41
0.4064
0
VERTEX
8
100
10
91.1860
20
110.7440
0
VERTEX
8
100
10
91.1860
20
111.7600
0
SEQEND
0
POLYLINE
8
100
66
1
40
0.4064
41
0.4064
0
VERTEX
8
100
10
91.1860
20
35.3060
0
VERTEX
8
100
10
91.9480
20
36.0680
0
SEQEND
0
POLYLINE
8
100
66
1
40
0.1778
41
0.1778
0
VERTEX
8
100
10
90.8050
20
125.0950
0
VERTEX
8
100
10
91.1860
20
124.7140
0
SEQEND
0
POLYLINE
8
100
66
1
40
0.1778
41
0.1778
0
VERTEX
8
100
10
90.6780
20
118.7450
0
VERTEX
8
100
10
91.1860
20
118.2370
0
SEQEND
0
POLYLINE
8
100
66
1
40
0.4064
41
0.4064
0
VERTEX
8
100
10
90.6780
20
110.2360
0
VERTEX
8
100
10
91.1860
20
110.7440
0
SEQEND
0
POLYLINE
8
100
66
1
40
0.7620
41
0.7620
0
VERTEX
8
100
10
56.0070
20
89.9160
0
VERTEX
8
100
10
87.6300
20
89.9160
0
SEQEND
0
POLYLINE
8
100
66
1
40
0.7620
41
0.7620
0
VERTEX
8
100
10
22.2250
20
90.8050
0
VERTEX
8
100
10
57.1500
20
90.8050
0
SEQEND
0
POLYLINE
8
100
66
1
40
0.1778
41
0.1778
0
VERTEX
8
100
10
43.9420
20
92.2528
0
VERTEX
8
100
10
47.0916
20
92.2528
0
SEQEND
0
POLYLINE
8
100
66
1
40
0.4064
41
0.4064
0
VERTEX
8
100
10
91.9480
20
36.0680
0
VERTEX
8
100
10
91.9480
20
37.9730
0
SEQEND
0
POLYLINE
8
100
66
1
40
0.7620
41
0.7620
0
VERTEX
8
100
10
92.2020
20
114.0460
0
VERTEX
8
100
10
92.2020
20
116.4590
0
SEQEND
0
POLYLINE
8
100
66
1
40
0.4064
41
0.4064
0
VERTEX
8
100
10
91.9480
20
37.5920
0
VERTEX
8
100
10
91.9480
20
40.6400
0
SEQEND
0
POLYLINE
8
100
66
1
40
0.7620
41
0.7620
0
VERTEX
8
100
10
22.2250
20
92.7100
0
VERTEX
8
100
10
55.8800
20
92.7100
0
SEQEND
0
POLYLINE
8
100
66
1
40
0.1778
41
0.1778
0
VERTEX
8
100
10
77.5970
20
91.5670
0
VERTEX
8
100
10
79.7560
20
91.5670
0
SEQEND
0
POLYLINE
8
100
66
1
40
0.1778
41
0.1778
0
VERTEX
8
100
10
49.3014
20
93.0910
0
VERTEX
8
100
10
50.1904
20
93.0910
0
SEQEND
0
POLYLINE
8
100
66
1
40
0.1778
41
0.1778
0
VERTEX
8
100
10
50.1650
20
93.0910
0
VERTEX
8
100
10
58.4200
20
93.0910
0
SEQEND
0
POLYLINE
8
100
66
1
40
0.7620
41
0.7620
0
VERTEX
8
100
10
93.7260
20
108.5850
0
VERTEX
8
100
10
93.7260
20
112.5220
0
SEQEND
0
POLYLINE
8
100
66
1
40
0.1778
41
0.1778
0
VERTEX
8
100
10
93.7260
20
105.4100
0
VERTEX
8
100
10
93.7260
20
108.5850
0
SEQEND
0
POLYLINE
8
100
66
1
40
0.1778
41
0.1778
0
VERTEX
8
100
10
94.1070
20
100.5840
0
VERTEX
8
100
10
95.1230
20
101.6000
0
SEQEND
0
POLYLINE
8
100
66
1
40
0.1778
41
0.1778
0
VERTEX
8
100
10
93.7260
20
105.4100
0
VERTEX
8
100
10
95.1230
20
104.0130
0
SEQEND
0
POLYLINE
8
100
66
1
40
0.7620
41
0.7620
0
VERTEX
8
100
10
34.5440
20
93.2180
0
VERTEX
8
100
10
56.0070
20
93.2180
0
SEQEND
0
POLYLINE
8
100
66
1
40
0.7620
41
0.7620
0
VERTEX
8
100
10
93.7260
20
106.6800
0
VERTEX
8
100
10
93.7260
20
108.5850
0
SEQEND
0
POLYLINE
8
100
66
1
40
0.4064
41
0.4064
0
VERTEX
8
100
10
94.1070
20
114.8080
0
VERTEX
8
100
10
94.1070
20
118.6180
0
SEQEND
0
POLYLINE
8
100
66
1
40
0.1778
41
0.1778
0
VERTEX
8
100
10
37.4650
20
95.2500
0
VERTEX
8
100
10
38.9890
20
95.2500
0
SEQEND
0
POLYLINE
8
100
66
1
40
0.1778
41
0.1778
0
VERTEX
8
100
10
31.1150
20
95.2500
0
VERTEX
8
100
10
34.9250
20
95.2500
0
SEQEND
0
POLYLINE
8
100
66
1
40
0.1778
41
0.1778
0
VERTEX
8
100
10
95.1230
20
101.6000
0
VERTEX
8
100
10
95.1230
20
104.0130
0
SEQEND
0
POLYLINE
8
100
66
1
40
0.1778
41
0.1778
0
VERTEX
8
100
10
95.8850
20
61.5950
0
VERTEX
8
100
10
97.7900
20
59.6900
0
SEQEND
0
POLYLINE
8
100
66
1
40
0.7620
41
0.7620
0
VERTEX
8
100
10
12.7000
20
95.2500
0
VERTEX
8
100
10
19.6850
20
95.2500
0
SEQEND
0
POLYLINE
8
100
66
1
40
0.7620
41
0.7620
0
VERTEX
8
100
10
94.6150
20
40.6400
0
VERTEX
8
100
10
94.6150
20
50.1650
0
SEQEND
0
POLYLINE
8
100
66
1
40
0.1778
41
0.1778
0
VERTEX
8
100
10
86.9950
20
96.6470
0
VERTEX
8
100
10
92.0750
20
96.6470
0
SEQEND
0
POLYLINE
8
100
66
1
40
0.4064
41
0.4064
0
VERTEX
8
100
10
52.1970
20
96.5200
0
VERTEX
8
100
10
55.2450
20
96.5200
0
SEQEND
0
POLYLINE
8
100
66
1
40
0.1778
41
0.1778
0
VERTEX
8
100
10
96.9010
20
71.7550
0
VERTEX
8
100
10
96.9010
20
75.5650
0
SEQEND
0
POLYLINE
8
100
66
1
40
0.1778
41
0.1778
0
VERTEX
8
100
10
96.9010
20
76.9620
0
VERTEX
8
100
10
96.9010
20
80.6450
0
SEQEND
0
POLYLINE
8
100
66
1
40
0.1778
41
0.1778
0
VERTEX
8
100
10
96.1390
20
62.1030
0
VERTEX
8
100
10
98.2980
20
59.9440
0
SEQEND
0
POLYLINE
8
100
66
1
40
0.1778
41
0.1778
0
VERTEX
8
100
10
96.3930
20
62.6110
0
VERTEX
8
100
10
98.8060
20
60.1980
0
SEQEND
0
POLYLINE
8
100
66
1
40
0.4064
41
0.4064
0
VERTEX
8
100
10
83.8200
20
98.1710
0
VERTEX
8
100
10
84.8360
20
98.1710
0
SEQEND
0
POLYLINE
8
100
66
1
40
0.2540
41
0.2540
0
VERTEX
8
100
10
5.0800
20
97.7900
0
VERTEX
8
100
10
11.4300
20
97.7900
0
SEQEND
0
POLYLINE
8
100
66
1
40
0.1778
41
0.1778
0
VERTEX
8
100
10
97.7900
20
41.2750
0
VERTEX
8
100
10
97.7900
20
59.6900
0
SEQEND
0
POLYLINE
8
100
66
1
40
0.1778
41
0.1778
0
VERTEX
8
100
10
98.2980
20
47.1170
0
VERTEX
8
100
10
98.2980
20
59.9440
0
SEQEND
0
POLYLINE
8
100
66
1
40
0.1778
41
0.1778
0
VERTEX
8
100
10
98.8060
20
47.3710
0
VERTEX
8
100
10
98.8060
20
60.1980
0
SEQEND
0
POLYLINE
8
100
66
1
40
0.1778
41
0.1778
0
VERTEX
8
100
10
97.9170
20
76.5810
0
VERTEX
8
100
10
97.9170
20
78.2320
0
SEQEND
0
POLYLINE
8
100
66
1
40
0.1778
41
0.1778
0
VERTEX
8
100
10
98.2980
20
47.1170
0
VERTEX
8
100
10
100.7110
20
44.7040
0
SEQEND
0
POLYLINE
8
100
66
1
40
0.1778
41
0.1778
0
VERTEX
8
100
10
97.7900
20
41.2750
0
VERTEX
8
100
10
99.3140
20
39.7510
0
SEQEND
0
POLYLINE
8
100
66
1
40
0.1778
41
0.1778
0
VERTEX
8
100
10
98.8060
20
47.3710
0
VERTEX
8
100
10
100.9650
20
45.2120
0
SEQEND
0
POLYLINE
8
100
66
1
40
0.1778
41
0.1778
0
VERTEX
8
100
10
97.9170
20
76.5810
0
VERTEX
8
100
10
98.2980
20
76.2000
0
SEQEND
0
POLYLINE
8
100
66
1
40
0.7620
41
0.7620
0
VERTEX
8
100
10
56.0070
20
98.1710
0
VERTEX
8
100
10
84.8360
20
98.1710
0
SEQEND
0
POLYLINE
8
100
66
1
40
0.7620
41
0.7620
0
VERTEX
8
100
10
84.7090
20
98.1710
0
VERTEX
8
100
10
87.6300
20
98.1710
0
SEQEND
0
POLYLINE
8
100
66
1
40
0.2540
41
0.2540
0
VERTEX
8
100
10
5.0800
20
97.7900
0
VERTEX
8
100
10
11.4300
20
97.7900
0
SEQEND
0
POLYLINE
8
100
66
1
40
0.1778
41
0.1778
0
VERTEX
8
100
10
70.3580
20
97.6630
0
VERTEX
8
100
10
75.9460
20
97.6630
0
SEQEND
0
POLYLINE
8
100
66
1
40
0.2540
41
0.2540
0
VERTEX
8
100
10
5.0800
20
97.7900
0
VERTEX
8
100
10
11.4300
20
97.7900
0
SEQEND
0
POLYLINE
8
100
66
1
40
0.4064
41
0.4064
0
VERTEX
8
100
10
45.0850
20
99.5680
0
VERTEX
8
100
10
46.6090
20
99.5680
0
SEQEND
0
POLYLINE
8
100
66
1
40
0.4064
41
0.4064
0
VERTEX
8
100
10
47.8790
20
99.5680
0
VERTEX
8
100
10
49.4030
20
99.5680
0
SEQEND
0
POLYLINE
8
100
66
1
40
0.1778
41
0.1778
0
VERTEX
8
100
10
90.1700
20
100.5840
0
VERTEX
8
100
10
94.1070
20
100.5840
0
SEQEND
0
POLYLINE
8
100
66
1
40
0.1778
41
0.1778
0
VERTEX
8
100
10
99.3140
20
47.6250
0
VERTEX
8
100
10
99.3140
20
60.4520
0
SEQEND
0
POLYLINE
8
100
66
1
40
0.1778
41
0.1778
0
VERTEX
8
100
10
99.3140
20
47.6250
0
VERTEX
8
100
10
101.2190
20
45.7200
0
SEQEND
0
POLYLINE
8
100
66
1
40
0.7620
41
0.7620
0
VERTEX
8
100
10
49.4030
20
99.5680
0
VERTEX
8
100
10
56.0070
20
99.5680
0
SEQEND
0
POLYLINE
8
100
66
1
40
0.1778
41
0.1778
0
VERTEX
8
100
10
62.9920
20
99.4410
0
VERTEX
8
100
10
76.4540
20
99.4410
0
SEQEND
0
POLYLINE
8
100
66
1
40
0.1778
41
0.1778
0
VERTEX
8
100
10
44.0690
20
101.6000
0
VERTEX
8
100
10
46.6090
20
101.6000
0
SEQEND
0
POLYLINE
8
100
66
1
40
0.4064
41
0.4064
0
VERTEX
8
100
10
52.1970
20
101.6000
0
VERTEX
8
100
10
59.3090
20
101.6000
0
SEQEND
0
POLYLINE
8
100
66
1
40
0.4064
41
0.4064
0
VERTEX
8
100
10
101.6000
20
26.6700
0
VERTEX
8
100
10
104.0130
20
29.0830
0
SEQEND
0
POLYLINE
8
100
66
1
40
0.4064
41
0.4064
0
VERTEX
8
100
10
101.4730
20
33.0200
0
VERTEX
8
100
10
104.0130
20
30.4800
0
SEQEND
0
POLYLINE
8
100
66
1
40
0.7620
41
0.7620
0
VERTEX
8
100
10
41.0210
20
102.1080
0
VERTEX
8
100
10
49.4030
20
102.1080
0
SEQEND
0
POLYLINE
8
100
66
1
40
0.7620
41
0.7620
0
VERTEX
8
100
10
25.0190
20
100.8380
0
VERTEX
8
100
10
34.5440
20
100.8380
0
SEQEND
0
POLYLINE
8
100
66
1
40
0.7620
41
0.7620
0
VERTEX
8
100
10
49.4030
20
101.6000
0
VERTEX
8
100
10
52.1970
20
101.6000
0
SEQEND
0
POLYLINE
8
100
66
1
40
0.4064
41
0.4064
0
VERTEX
8
100
10
91.0590
20
102.7430
0
VERTEX
8
100
10
93.5990
20
102.7430
0
SEQEND
0
POLYLINE
8
100
66
1
40
0.4064
41
0.4064
0
VERTEX
8
100
10
91.3130
20
102.7430
0
VERTEX
8
100
10
93.5990
20
102.7430
0
SEQEND
0
POLYLINE
8
100
66
1
40
0.7620
41
0.7620
0
VERTEX
8
100
10
63.5000
20
102.8700
0
VERTEX
8
100
10
76.2000
20
102.8700
0
SEQEND
0
POLYLINE
8
100
66
1
40
0.1778
41
0.1778
0
VERTEX
8
100
10
88.0110
20
105.4100
0
VERTEX
8
100
10
90.0430
20
105.4100
0
SEQEND
0
POLYLINE
8
100
66
1
40
0.1778
41
0.1778
0
VERTEX
8
100
10
37.4650
20
104.1400
0
VERTEX
8
100
10
38.9890
20
104.1400
0
SEQEND
0
POLYLINE
8
100
66
1
40
0.1778
41
0.1778
0
VERTEX
8
100
10
31.1150
20
104.1400
0
VERTEX
8
100
10
34.9250
20
104.1400
0
SEQEND
0
POLYLINE
8
100
66
1
40
0.4064
41
0.4064
0
VERTEX
8
100
10
104.1400
20
58.4200
0
VERTEX
8
100
10
104.1400
20
73.0250
0
SEQEND
0
POLYLINE
8
100
66
1
40
0.4064
41
0.4064
0
VERTEX
8
100
10
104.1400
20
79.4258
0
VERTEX
8
100
10
104.1400
20
91.4400
0
SEQEND
0
POLYLINE
8
100
66
1
40
0.4064
41
0.4064
0
VERTEX
8
100
10
104.1400
20
93.9800
0
VERTEX
8
100
10
104.1400
20
119.3800
0
SEQEND
0
POLYLINE
8
100
66
1
40
0.4064
41
0.4064
0
VERTEX
8
100
10
104.1400
20
49.6570
0
VERTEX
8
100
10
104.1400
20
55.8800
0
SEQEND
0
POLYLINE
8
100
66
1
40
0.7620
41
0.7620
0
VERTEX
8
100
10
62.2300
20
104.7750
0
VERTEX
8
100
10
71.7550
20
104.7750
0
SEQEND
0
POLYLINE
8
100
66
1
40
0.1778
41
0.1778
0
VERTEX
8
100
10
82.8040
20
106.5530
0
VERTEX
8
100
10
86.3600
20
106.5530
0
SEQEND
0
POLYLINE
8
100
66
1
40
0.4064
41
0.4064
0
VERTEX
8
100
10
74.9300
20
106.6800
0
VERTEX
8
100
10
76.4540
20
106.6800
0
SEQEND
0
POLYLINE
8
100
66
1
40
0.1778
41
0.1778
0
VERTEX
8
100
10
106.2990
20
37.4650
0
VERTEX
8
100
10
106.2990
20
39.1160
0
SEQEND
0
POLYLINE
8
100
66
1
40
0.1778
41
0.1778
0
VERTEX
8
100
10
106.2990
20
27.6860
0
VERTEX
8
100
10
106.2990
20
29.0830
0
SEQEND
0
POLYLINE
8
100
66
1
40
0.1778
41
0.1778
0
VERTEX
8
100
10
106.2990
20
30.4800
0
VERTEX
8
100
10
106.2990
20
32.1310
0
SEQEND
0
POLYLINE
8
100
66
1
40
0.1778
41
0.1778
0
VERTEX
8
100
10
106.4260
20
44.7040
0
VERTEX
8
100
10
107.4420
20
43.6880
0
SEQEND
0
POLYLINE
8
100
66
1
40
0.1778
41
0.1778
0
VERTEX
8
100
10
105.6640
20
39.7510
0
VERTEX
8
100
10
106.2990
20
39.1160
0
SEQEND
0
POLYLINE
8
100
66
1
40
0.1778
41
0.1778
0
VERTEX
8
100
10
106.2990
20
32.1310
0
VERTEX
8
100
10
107.4420
20
33.2740
0
SEQEND
0
POLYLINE
8
100
66
1
40
0.7620
41
0.7620
0
VERTEX
8
100
10
34.5440
20
106.0450
0
VERTEX
8
100
10
49.4030
20
106.0450
0
SEQEND
0
POLYLINE
8
100
66
1
40
0.7620
41
0.7620
0
VERTEX
8
100
10
53.3400
20
106.6800
0
VERTEX
8
100
10
55.8800
20
106.6800
0
SEQEND
0
POLYLINE
8
100
66
1
40
0.1778
41
0.1778
0
VERTEX
8
100
10
106.2990
20
27.6860
0
VERTEX
8
100
10
106.2990
20
37.4650
0
SEQEND
0
POLYLINE
8
100
66
1
40
0.4064
41
0.4064
0
VERTEX
8
100
10
91.3130
20
108.5850
0
VERTEX
8
100
10
93.7260
20
108.5850
0
SEQEND
0
POLYLINE
8
100
66
1
40
0.1778
41
0.1778
0
VERTEX
8
100
10
107.4420
20
33.2740
0
VERTEX
8
100
10
107.4420
20
41.9100
0
SEQEND
0
POLYLINE
8
100
66
1
40
0.1778
41
0.1778
0
VERTEX
8
100
10
107.4420
20
41.9100
0
VERTEX
8
100
10
107.4420
20
43.6880
0
SEQEND
0
POLYLINE
8
100
66
1
40
0.4064
41
0.4064
0
VERTEX
8
100
10
123.0630
20
109.7280
0
VERTEX
8
100
10
124.5870
20
109.7280
0
SEQEND
0
POLYLINE
8
100
66
1
40
0.4064
41
0.4064
0
VERTEX
8
100
10
117.8560
20
109.7280
0
VERTEX
8
100
10
119.3800
20
109.7280
0
SEQEND
0
POLYLINE
8
100
66
1
40
0.4064
41
0.4064
0
VERTEX
8
100
10
110.1090
20
123.9520
0
VERTEX
8
100
10
110.1090
20
125.8570
0
SEQEND
0
POLYLINE
8
100
66
1
40
0.4064
41
0.4064
0
VERTEX
8
100
10
109.7280
20
92.9640
0
VERTEX
8
100
10
109.7280
20
97.7900
0
SEQEND
0
POLYLINE
8
100
66
1
40
0.4064
41
0.4064
0
VERTEX
8
100
10
109.7280
20
77.2160
0
VERTEX
8
100
10
109.7280
20
93.5990
0
SEQEND
0
POLYLINE
8
100
66
1
40
0.4064
41
0.4064
0
VERTEX
8
100
10
109.7280
20
76.3270
0
VERTEX
8
100
10
109.7280
20
77.4700
0
SEQEND
0
POLYLINE
8
100
66
1
40
0.4064
41
0.4064
0
VERTEX
8
100
10
109.7280
20
76.3270
0
VERTEX
8
100
10
110.4900
20
75.5650
0
SEQEND
0
POLYLINE
8
100
66
1
40
0.4064
41
0.4064
0
VERTEX
8
100
10
89.4080
20
110.2360
0
VERTEX
8
100
10
89.7890
20
110.2360
0
SEQEND
0
POLYLINE
8
100
66
1
40
0.4064
41
0.4064
0
VERTEX
8
100
10
89.7890
20
110.2360
0
VERTEX
8
100
10
90.6780
20
110.2360
0
SEQEND
0
POLYLINE
8
100
66
1
40
0.7620
41
0.7620
0
VERTEX
8
100
10
55.8800
20
111.1250
0
VERTEX
8
100
10
62.2300
20
111.1250
0
SEQEND
0
POLYLINE
8
100
66
1
40
0.7620
41
0.7620
0
VERTEX
8
100
10
72.3900
20
111.1250
0
VERTEX
8
100
10
75.5650
20
111.1250
0
SEQEND
0
POLYLINE
8
100
66
1
40
0.1778
41
0.1778
0
VERTEX
8
100
10
111.6330
20
45.2120
0
VERTEX
8
100
10
113.0300
20
43.8150
0
SEQEND
0
POLYLINE
8
100
66
1
40
0.1778
41
0.1778
0
VERTEX
8
100
10
31.1150
20
113.0300
0
VERTEX
8
100
10
34.9250
20
113.0300
0
SEQEND
0
POLYLINE
8
100
66
1
40
0.1778
41
0.1778
0
VERTEX
8
100
10
37.4650
20
113.0300
0
VERTEX
8
100
10
38.7350
20
113.0300
0
SEQEND
0
POLYLINE
8
100
66
1
40
0.1778
41
0.1778
0
VERTEX
8
100
10
113.0300
20
42.5450
0
VERTEX
8
100
10
113.0300
20
43.8150
0
SEQEND
0
POLYLINE
8
100
66
1
40
0.1778
41
0.1778
0
VERTEX
8
100
10
113.0300
20
40.1320
0
VERTEX
8
100
10
113.0300
20
42.9260
0
SEQEND
0
POLYLINE
8
100
66
1
40
0.4064
41
0.4064
0
VERTEX
8
100
10
113.0300
20
120.1420
0
VERTEX
8
100
10
113.0300
20
121.9200
0
SEQEND
0
POLYLINE
8
100
66
1
40
0.1778
41
0.1778
0
VERTEX
8
100
10
111.8870
20
45.7200
0
VERTEX
8
100
10
114.0460
20
43.5610
0
SEQEND
0
POLYLINE
8
100
66
1
40
0.1778
41
0.1778
0
VERTEX
8
100
10
113.0300
20
40.1320
0
VERTEX
8
100
10
114.0460
20
39.1160
0
SEQEND
0
POLYLINE
8
100
66
1
40
0.4064
41
0.4064
0
VERTEX
8
100
10
113.6650
20
31.6230
0
VERTEX
8
100
10
113.6650
20
33.1470
0
SEQEND
0
POLYLINE
8
100
66
1
40
0.4064
41
0.4064
0
VERTEX
8
100
10
113.6650
20
26.5430
0
VERTEX
8
100
10
113.6650
20
28.0670
0
SEQEND
0
POLYLINE
8
100
66
1
40
0.1778
41
0.1778
0
VERTEX
8
100
10
114.0460
20
42.1640
0
VERTEX
8
100
10
114.0460
20
43.5610
0
SEQEND
0
POLYLINE
8
100
66
1
40
0.1778
41
0.1778
0
VERTEX
8
100
10
114.0460
20
37.4650
0
VERTEX
8
100
10
114.0460
20
39.1160
0
SEQEND
0
POLYLINE
8
100
66
1
40
0.6350
41
0.6350
0
VERTEX
8
100
10
113.9190
20
91.3130
0
VERTEX
8
100
10
113.9190
20
93.9800
0
SEQEND
0
POLYLINE
8
100
66
1
40
0.4064
41
0.4064
0
VERTEX
8
100
10
113.9190
20
84.7090
0
VERTEX
8
100
10
113.9190
20
87.6300
0
SEQEND
0
POLYLINE
8
100
66
1
40
0.6350
41
0.6350
0
VERTEX
8
100
10
113.9190
20
93.8530
0
VERTEX
8
100
10
113.9190
20
97.7900
0
SEQEND
0
POLYLINE
8
100
66
1
40
0.7620
41
0.7620
0
VERTEX
8
100
10
113.9190
20
104.9020
0
VERTEX
8
100
10
113.9190
20
115.6970
0
SEQEND
0
POLYLINE
8
100
66
1
40
0.7620
41
0.7620
0
VERTEX
8
100
10
113.9190
20
97.7900
0
VERTEX
8
100
10
113.9190
20
105.1560
0
SEQEND
0
POLYLINE
8
100
66
1
40
0.7620
41
0.7620
0
VERTEX
8
100
10
50.8000
20
116.2050
0
VERTEX
8
100
10
61.5950
20
116.2050
0
SEQEND
0
POLYLINE
8
100
66
1
40
0.7620
41
0.7620
0
VERTEX
8
100
10
72.3900
20
116.2050
0
VERTEX
8
100
10
78.7400
20
116.2050
0
SEQEND
0
POLYLINE
8
100
66
1
40
0.6350
41
0.6350
0
VERTEX
8
100
10
116.2050
20
87.6300
0
VERTEX
8
100
10
116.2050
20
90.8050
0
SEQEND
0
POLYLINE
8
100
66
1
40
0.4064
41
0.4064
0
VERTEX
8
100
10
116.2050
20
93.9800
0
VERTEX
8
100
10
116.2050
20
95.6310
0
SEQEND
0
POLYLINE
8
100
66
1
40
0.1778
41
0.1778
0
VERTEX
8
100
10
116.3320
20
41.9100
0
VERTEX
8
100
10
117.2210
20
41.0210
0
SEQEND
0
POLYLINE
8
100
66
1
40
0.1778
41
0.1778
0
VERTEX
8
100
10
88.1380
20
117.4750
0
VERTEX
8
100
10
89.1540
20
117.4750
0
SEQEND
0
POLYLINE
8
100
66
1
40
0.1778
41
0.1778
0
VERTEX
8
100
10
117.2210
20
36.0680
0
VERTEX
8
100
10
117.2210
20
37.4650
0
SEQEND
0
POLYLINE
8
100
66
1
40
0.4064
41
0.4064
0
VERTEX
8
100
10
94.1070
20
116.8400
0
VERTEX
8
100
10
97.1550
20
116.8400
0
SEQEND
0
POLYLINE
8
100
66
1
40
0.1778
41
0.1778
0
VERTEX
8
100
10
89.2810
20
118.7450
0
VERTEX
8
100
10
90.6780
20
118.7450
0
SEQEND
0
POLYLINE
8
100
66
1
40
0.5080
41
0.5080
0
VERTEX
8
100
10
118.7450
20
76.2000
0
VERTEX
8
100
10
118.7450
20
78.6130
0
SEQEND
0
POLYLINE
8
100
66
1
40
0.4064
41
0.4064
0
VERTEX
8
100
10
118.7450
20
84.7090
0
VERTEX
8
100
10
118.7450
20
87.6300
0
SEQEND
0
POLYLINE
8
100
66
1
40
0.4064
41
0.4064
0
VERTEX
8
100
10
118.3640
20
32.0040
0
VERTEX
8
100
10
118.3640
20
33.6550
0
SEQEND
0
POLYLINE
8
100
66
1
40
0.4064
41
0.4064
0
VERTEX
8
100
10
118.8720
20
62.7380
0
VERTEX
8
100
10
118.8720
20
66.4210
0
SEQEND
0
POLYLINE
8
100
66
1
40
0.1778
41
0.1778
0
VERTEX
8
100
10
118.9990
20
38.1000
0
VERTEX
8
100
10
118.9990
20
41.9100
0
SEQEND
0
POLYLINE
8
100
66
1
40
0.5080
41
0.5080
0
VERTEX
8
100
10
118.1100
20
75.5650
0
VERTEX
8
100
10
118.7450
20
76.2000
0
SEQEND
0
POLYLINE
8
100
66
1
40
0.1778
41
0.1778
0
VERTEX
8
100
10
118.9990
20
41.9100
0
VERTEX
8
100
10
119.3800
20
42.2910
0
SEQEND
0
POLYLINE
8
100
66
1
40
0.1778
41
0.1778
0
VERTEX
8
100
10
118.3640
20
37.4650
0
VERTEX
8
100
10
118.9990
20
38.1000
0
SEQEND
0
POLYLINE
8
100
66
1
40
0.7620
41
0.7620
0
VERTEX
8
100
10
92.4560
20
120.9040
0
VERTEX
8
100
10
97.5360
20
120.9040
0
SEQEND
0
POLYLINE
8
100
66
1
40
0.7620
41
0.7620
0
VERTEX
8
100
10
90.1700
20
120.0150
0
VERTEX
8
100
10
91.5670
20
120.0150
0
SEQEND
0
POLYLINE
8
100
66
1
40
0.4064
41
0.4064
0
VERTEX
8
100
10
120.0150
20
78.7400
0
VERTEX
8
100
10
120.0150
20
80.8990
0
SEQEND
0
POLYLINE
8
100
66
1
40
0.4064
41
0.4064
0
VERTEX
8
100
10
120.6500
20
40.1320
0
VERTEX
8
100
10
120.6500
20
42.1640
0
SEQEND
0
POLYLINE
8
100
66
1
40
0.1778
41
0.1778
0
VERTEX
8
100
10
120.6500
20
43.6880
0
VERTEX
8
100
10
120.6500
20
44.1960
0
SEQEND
0
POLYLINE
8
100
66
1
40
0.4064
41
0.4064
0
VERTEX
8
100
10
120.6500
20
40.1320
0
VERTEX
8
100
10
121.2850
20
39.4970
0
SEQEND
0
POLYLINE
8
100
66
1
40
0.1778
41
0.1778
0
VERTEX
8
100
10
120.2690
20
43.3070
0
VERTEX
8
100
10
120.6500
20
43.6880
0
SEQEND
0
POLYLINE
8
100
66
1
40
0.7620
41
0.7620
0
VERTEX
8
100
10
97.5360
20
120.9040
0
VERTEX
8
100
10
108.7120
20
120.9040
0
SEQEND
0
POLYLINE
8
100
66
1
40
0.4064
41
0.4064
0
VERTEX
8
100
10
106.6800
20
121.9200
0
VERTEX
8
100
10
109.9820
20
121.9200
0
SEQEND
0
POLYLINE
8
100
66
1
40
0.4064
41
0.4064
0
VERTEX
8
100
10
74.8030
20
121.2850
0
VERTEX
8
100
10
76.4540
20
121.2850
0
SEQEND
0
POLYLINE
8
100
66
1
40
0.1778
41
0.1778
0
VERTEX
8
100
10
37.4650
20
121.9200
0
VERTEX
8
100
10
38.6080
20
121.9200
0
SEQEND
0
POLYLINE
8
100
66
1
40
0.1778
41
0.1778
0
VERTEX
8
100
10
31.1150
20
121.9200
0
VERTEX
8
100
10
34.9250
20
121.9200
0
SEQEND
0
POLYLINE
8
100
66
1
40
0.4064
41
0.4064
0
VERTEX
8
100
10
113.1570
20
121.9200
0
VERTEX
8
100
10
115.5700
20
121.9200
0
SEQEND
0
POLYLINE
8
100
66
1
40
0.4064
41
0.4064
0
VERTEX
8
100
10
121.2850
20
116.5860
0
VERTEX
8
100
10
121.2850
20
121.5390
0
SEQEND
0
POLYLINE
8
100
66
1
40
0.4064
41
0.4064
0
VERTEX
8
100
10
121.2850
20
106.8070
0
VERTEX
8
100
10
121.2850
20
116.9670
0
SEQEND
0
POLYLINE
8
100
66
1
40
0.4064
41
0.4064
0
VERTEX
8
100
10
121.2850
20
98.2980
0
VERTEX
8
100
10
121.2850
20
104.5210
0
SEQEND
0
POLYLINE
8
100
66
1
40
0.4064
41
0.4064
0
VERTEX
8
100
10
121.2850
20
93.0910
0
VERTEX
8
100
10
121.2850
20
95.8850
0
SEQEND
0
POLYLINE
8
100
66
1
40
0.4064
41
0.4064
0
VERTEX
8
100
10
121.2850
20
84.7090
0
VERTEX
8
100
10
121.2850
20
90.8050
0
SEQEND
0
POLYLINE
8
100
66
1
40
0.4064
41
0.4064
0
VERTEX
8
100
10
121.2850
20
74.9300
0
VERTEX
8
100
10
121.2850
20
78.9940
0
SEQEND
0
POLYLINE
8
100
66
1
40
0.4064
41
0.4064
0
VERTEX
8
100
10
121.2850
20
69.5960
0
VERTEX
8
100
10
121.2850
20
72.5170
0
SEQEND
0
POLYLINE
8
100
66
1
40
0.4064
41
0.4064
0
VERTEX
8
100
10
121.2850
20
62.6110
0
VERTEX
8
100
10
121.2850
20
67.3100
0
SEQEND
0
POLYLINE
8
100
66
1
40
0.4064
41
0.4064
0
VERTEX
8
100
10
121.2850
20
50.8000
0
VERTEX
8
100
10
121.2850
20
60.0710
0
SEQEND
0
POLYLINE
8
100
66
1
40
0.4064
41
0.4064
0
VERTEX
8
100
10
121.2850
20
31.8770
0
VERTEX
8
100
10
121.2850
20
35.5600
0
SEQEND
0
POLYLINE
8
100
66
1
40
0.4064
41
0.4064
0
VERTEX
8
100
10
121.2850
20
37.9730
0
VERTEX
8
100
10
121.2850
20
39.4970
0
SEQEND
0
POLYLINE
8
100
66
1
40
0.4064
41
0.4064
0
VERTEX
8
100
10
121.2850
20
44.5770
0
VERTEX
8
100
10
121.2850
20
48.2600
0
SEQEND
0
POLYLINE
8
100
66
1
40
0.1778
41
0.1778
0
VERTEX
8
100
10
122.5550
20
42.2910
0
VERTEX
8
100
10
122.9360
20
41.9100
0
SEQEND
0
POLYLINE
8
100
66
1
40
0.1778
41
0.1778
0
VERTEX
8
100
10
122.5550
20
41.0210
0
VERTEX
8
100
10
122.9360
20
41.4020
0
SEQEND
0
POLYLINE
8
100
66
1
40
0.4064
41
0.4064
0
VERTEX
8
100
10
113.5380
20
123.9520
0
VERTEX
8
100
10
118.7450
20
123.9520
0
SEQEND
0
POLYLINE
8
100
66
1
40
0.4064
41
0.4064
0
VERTEX
8
100
10
108.0770
20
123.6980
0
VERTEX
8
100
10
110.2360
20
123.6980
0
SEQEND
0
POLYLINE
8
100
66
1
40
0.4064
41
0.4064
0
VERTEX
8
100
10
123.5710
20
98.8060
0
VERTEX
8
100
10
123.5710
20
102.2350
0
SEQEND
0
POLYLINE
8
100
66
1
40
1.2700
41
1.2700
0
VERTEX
8
100
10
124.0790
20
72.3900
0
VERTEX
8
100
10
124.0790
20
75.5650
0
SEQEND
0
POLYLINE
8
100
66
1
40
1.2700
41
1.2700
0
VERTEX
8
100
10
124.0790
20
87.3760
0
VERTEX
8
100
10
124.0790
20
89.9160
0
SEQEND
0
POLYLINE
8
100
66
1
40
0.1778
41
0.1778
0
VERTEX
8
100
10
122.9360
20
41.4020
0
VERTEX
8
100
10
122.9360
20
41.9100
0
SEQEND
0
POLYLINE
8
100
66
1
40
1.2700
41
1.2700
0
VERTEX
8
100
10
124.0790
20
86.7410
0
VERTEX
8
100
10
124.0790
20
89.9160
0
SEQEND
0
POLYLINE
8
100
66
1
40
1.2700
41
1.2700
0
VERTEX
8
100
10
124.0790
20
72.5170
0
VERTEX
8
100
10
124.0790
20
74.6760
0
SEQEND
0
POLYLINE
8
100
66
1
40
0.1778
41
0.1778
0
VERTEX
8
100
10
88.2650
20
125.0950
0
VERTEX
8
100
10
90.8050
20
125.0950
0
SEQEND
0
POLYLINE
8
100
66
1
40
1.2700
41
1.2700
0
VERTEX
8
100
10
125.3490
20
71.7550
0
VERTEX
8
100
10
125.3490
20
75.1840
0
SEQEND
0
POLYLINE
8
100
66
1
40
1.2700
41
1.2700
0
VERTEX
8
100
10
127.5080
20
69.4690
0
VERTEX
8
100
10
127.5080
20
75.6920
0
SEQEND
0
POLYLINE
8
100
66
1
40
1.2700
41
1.2700
0
VERTEX
8
100
10
126.4920
20
70.4850
0
VERTEX
8
100
10
126.4920
20
75.1840
0
SEQEND
0
POLYLINE
8
100
66
1
40
1.2700
41
1.2700
0
VERTEX
8
100
10
127.3810
20
69.5960
0
VERTEX
8
100
10
127.3810
20
74.6760
0
SEQEND
0
POLYLINE
8
100
66
1
40
1.2700
41
1.2700
0
VERTEX
8
100
10
126.7460
20
70.6120
0
VERTEX
8
100
10
126.7460
20
72.6440
0
SEQEND
0
POLYLINE
8
100
66
1
40
1.2700
41
1.2700
0
VERTEX
8
100
10
128.5240
20
68.1990
0
VERTEX
8
100
10
128.5240
20
75.8190
0
SEQEND
0
POLYLINE
8
100
66
1
40
1.2700
41
1.2700
0
VERTEX
8
100
10
128.3970
20
68.3260
0
VERTEX
8
100
10
128.3970
20
74.6760
0
SEQEND
0
POLYLINE
8
100
66
1
40
1.2700
41
1.2700
0
VERTEX
8
100
10
130.4290
20
74.2950
0
VERTEX
8
100
10
130.4290
20
76.7080
0
SEQEND
0
POLYLINE
8
100
66
1
40
1.2700
41
1.2700
0
VERTEX
8
100
10
130.4290
20
66.4210
0
VERTEX
8
100
10
130.4290
20
74.4220
0
SEQEND
0
POLYLINE
8
100
66
1
40
1.2700
41
1.2700
0
VERTEX
8
100
10
129.5400
20
67.8180
0
VERTEX
8
100
10
129.5400
20
75.9460
0
SEQEND
0
POLYLINE
8
100
66
1
40
1.2700
41
1.2700
0
VERTEX
8
100
10
130.4290
20
66.4210
0
VERTEX
8
100
10
130.4290
20
74.1680
0
SEQEND
0
POLYLINE
8
100
66
1
40
1.2700
41
1.2700
0
VERTEX
8
100
10
129.4130
20
68.0720
0
VERTEX
8
100
10
129.4130
20
74.2950
0
SEQEND
0
POLYLINE
8
100
66
1
40
0.2540
41
0.2540
0
VERTEX
8
100
10
20.9550
20
139.7000
0
VERTEX
8
100
10
134.6200
20
139.7000
0
SEQEND
0
POLYLINE
8
100
66
1
40
0.2540
41
0.2540
0
VERTEX
8
100
10
17.7800
20
139.7000
0
VERTEX
8
100
10
23.4950
20
139.7000
0
SEQEND
0
POLYLINE
8
100
66
1
40
0.2540
41
0.2540
0
VERTEX
8
100
10
139.7000
20
17.7800
0
VERTEX
8
100
10
139.7000
20
134.6200
0
SEQEND
0
POLYLINE
8
100
66
1
40
0.2540
41
0.2540
0
VERTEX
8
100
10
20.9550
20
139.7000
0
VERTEX
8
100
10
134.6200
20
139.7000
0
SEQEND
0
POLYLINE
8
100
66
1
40
0.2540
41
0.2540
0
VERTEX
8
100
10
17.7800
20
139.7000
0
VERTEX
8
100
10
23.4950
20
139.7000
0
SEQEND
0
POLYLINE
8
100
66
1
40
0.2540
41
0.2540
0
VERTEX
8
100
10
139.7000
20
17.7800
0
VERTEX
8
100
10
139.7000
20
134.6200
0
SEQEND
0
POLYLINE
8
100
66
1
40
0.2540
41
0.2540
0
VERTEX
8
100
10
17.7800
20
139.7000
0
VERTEX
8
100
10
23.4950
20
139.7000
0
SEQEND
0
POLYLINE
8
100
66
1
40
0.2540
41
0.2540
0
VERTEX
8
100
10
20.9550
20
139.7000
0
VERTEX
8
100
10
134.6200
20
139.7000
0
SEQEND
0
POLYLINE
8
100
66
1
40
0.2540
41
0.2540
0
VERTEX
8
100
10
139.7000
20
17.7800
0
VERTEX
8
100
10
139.7000
20
134.6200
0
SEQEND
0
CIRCLE
8
100
62
7
10
17.5260
20
56.5150
40
0.3810
0
CIRCLE
8
100
62
7
10
17.5260
20
56.5150
40
0.1905
0
CIRCLE
8
100
62
7
10
19.4310
20
56.5150
40
0.3810
0
CIRCLE
8
100
62
7
10
19.4310
20
56.5150
40
0.1905
0
CIRCLE
8
100
62
7
10
26.6700
20
71.8820
40
0.3810
0
CIRCLE
8
100
62
7
10
26.6700
20
71.8820
40
0.1905
0
CIRCLE
8
100
62
7
10
26.4160
20
56.5150
40
0.3810
0
CIRCLE
8
100
62
7
10
26.4160
20
56.5150
40
0.1905
0
CIRCLE
8
100
62
7
10
25.9080
20
64.1350
40
0.3810
0
CIRCLE
8
100
62
7
10
25.9080
20
64.1350
40
0.1905
0
CIRCLE
8
100
62
7
10
25.9080
20
66.0400
40
0.3810
0
CIRCLE
8
100
62
7
10
25.9080
20
66.0400
40
0.1905
0
CIRCLE
8
100
62
7
10
33.7820
20
71.8820
40
0.3810
0
CIRCLE
8
100
62
7
10
33.7820
20
71.8820
40
0.1905
0
CIRCLE
8
100
62
7
10
34.9250
20
36.7030
40
0.3810
0
CIRCLE
8
100
62
7
10
34.9250
20
36.7030
40
0.1905
0
CIRCLE
8
100
62
7
10
37.0840
20
64.7700
40
0.3810
0
CIRCLE
8
100
62
7
10
37.0840
20
64.7700
40
0.1905
0
CIRCLE
8
100
62
7
10
36.4490
20
62.1030
40
0.3810
0
CIRCLE
8
100
62
7
10
36.4490
20
62.1030
40
0.1905
0
CIRCLE
8
100
62
7
10
37.8460
20
70.4850
40
0.3810
0
CIRCLE
8
100
62
7
10
37.8460
20
70.4850
40
0.1905
0
CIRCLE
8
100
62
7
10
38.2270
20
42.9260
40
0.3810
0
CIRCLE
8
100
62
7
10
38.2270
20
42.9260
40
0.1905
0
CIRCLE
8
100
62
7
10
42.6720
20
81.5340
40
0.3810
0
CIRCLE
8
100
62
7
10
42.6720
20
81.5340
40
0.1905
0
CIRCLE
8
100
62
7
10
50.8000
20
116.2050
40
0.3810
0
CIRCLE
8
100
62
7
10
50.8000
20
116.2050
40
0.1905
0
CIRCLE
8
100
62
7
10
55.8800
20
111.1250
40
0.3810
0
CIRCLE
8
100
62
7
10
55.8800
20
111.1250
40
0.1905
0
CIRCLE
8
100
62
7
10
58.5470
20
70.9930
40
0.3810
0
CIRCLE
8
100
62
7
10
58.5470
20
70.9930
40
0.1905
0
CIRCLE
8
100
62
7
10
58.4200
20
82.0420
40
0.3810
0
CIRCLE
8
100
62
7
10
58.4200
20
82.0420
40
0.1905
0
CIRCLE
8
100
62
7
10
75.5650
20
111.1250
40
0.3810
0
CIRCLE
8
100
62
7
10
75.5650
20
111.1250
40
0.1905
0
CIRCLE
8
100
62
7
10
78.7400
20
116.2050
40
0.3810
0
CIRCLE
8
100
62
7
10
78.7400
20
116.2050
40
0.1905
0
CIRCLE
8
100
62
7
10
87.5030
20
76.2000
40
0.7874
0
CIRCLE
8
100
62
7
10
87.5030
20
76.2000
40
0.5080
0
CIRCLE
8
100
62
7
10
93.7260
20
108.5850
40
0.3810
0
CIRCLE
8
100
62
7
10
93.7260
20
108.5850
40
0.1905
0
CIRCLE
8
100
62
7
10
97.5360
20
120.9040
40
0.3810
0
CIRCLE
8
100
62
7
10
97.5360
20
120.9040
40
0.1905
0
CIRCLE
8
100
62
7
10
106.2990
20
27.6860
40
0.3810
0
CIRCLE
8
100
62
7
10
106.2990
20
27.6860
40
0.1905
0
CIRCLE
8
100
62
7
10
122.9360
20
41.4020
40
0.3810
0
CIRCLE
8
100
62
7
10
122.9360
20
41.4020
40
0.1905
0
CIRCLE
8
100
62
3
10
32.5120
20
45.3390
40
0.3810
0
POLYLINE
8
100
66
1
40
0.0254
41
0.0254
0
VERTEX
8
100
10
32.3215
20
45.3390
42
1.0
0
VERTEX
8
100
10
32.7025
20
45.3390
42
1.0
0
VERTEX
8
100
10
32.3215
20
45.3390
0
SEQEND
0
CIRCLE
8
100
62
3
10
32.5120
20
45.3390
40
0.1905
0
CIRCLE
8
100
62
3
10
35.9410
20
45.3390
40
0.3810
0
POLYLINE
8
100
66
1
40
0.0254
41
0.0254
0
VERTEX
8
100
10
35.7505
20
45.3390
42
1.0
0
VERTEX
8
100
10
36.1315
20
45.3390
42
1.0
0
VERTEX
8
100
10
35.7505
20
45.3390
0
SEQEND
0
CIRCLE
8
100
62
3
10
35.9410
20
45.3390
40
0.1905
0
CIRCLE
8
100
62
3
10
85.9790
20
38.9890
40
0.3810
0
POLYLINE
8
100
66
1
40
0.0254
41
0.0254
0
VERTEX
8
100
10
85.7885
20
38.9890
42
1.0
0
VERTEX
8
100
10
86.1695
20
38.9890
42
1.0
0
VERTEX
8
100
10
85.7885
20
38.9890
0
SEQEND
0
CIRCLE
8
100
62
3
10
85.9790
20
38.9890
40
0.1905
0
CIRCLE
8
100
62
3
10
87.8840
20
40.6400
40
0.3810
0
POLYLINE
8
100
66
1
40
0.0254
41
0.0254
0
VERTEX
8
100
10
87.6935
20
40.6400
42
1.0
0
VERTEX
8
100
10
88.0745
20
40.6400
42
1.0
0
VERTEX
8
100
10
87.6935
20
40.6400
0
SEQEND
0
CIRCLE
8
100
62
3
10
87.8840
20
40.6400
40
0.1905
0
SOLID
8
100
10
111.2520
20
80.3910
11
111.2520
21
82.9310
12
126.4920
22
80.3910
13
126.4920
23
82.9310
0
CIRCLE
8
100
62
7
10
118.8720
20
81.6610
40
0.0000
0
CIRCLE
8
100
62
3
10
60.9600
20
38.9890
40
0.3810
0
POLYLINE
8
100
66
1
40
0.0254
41
0.0254
0
VERTEX
8
100
10
60.7695
20
38.9890
42
1.0
0
VERTEX
8
100
10
61.1505
20
38.9890
42
1.0
0
VERTEX
8
100
10
60.7695
20
38.9890
0
SEQEND
0
CIRCLE
8
100
62
3
10
60.9600
20
38.9890
40
0.1905
0
CIRCLE
8
100
62
3
10
54.3560
20
40.7670
40
0.3810
0
POLYLINE
8
100
66
1
40
0.0254
41
0.0254
0
VERTEX
8
100
10
54.1655
20
40.7670
42
1.0
0
VERTEX
8
100
10
54.5465
20
40.7670
42
1.0
0
VERTEX
8
100
10
54.1655
20
40.7670
0
SEQEND
0
CIRCLE
8
100
62
3
10
54.3560
20
40.7670
40
0.1905
0
CIRCLE
8
100
62
3
10
58.9280
20
37.4650
40
0.3810
0
POLYLINE
8
100
66
1
40
0.0254
41
0.0254
0
VERTEX
8
100
10
58.7375
20
37.4650
42
1.0
0
VERTEX
8
100
10
59.1185
20
37.4650
42
1.0
0
VERTEX
8
100
10
58.7375
20
37.4650
0
SEQEND
0
CIRCLE
8
100
62
3
10
58.9280
20
37.4650
40
0.1905
0
CIRCLE
8
100
62
3
10
124.5870
20
109.7280
40
0.3810
0
POLYLINE
8
100
66
1
40
0.0254
41
0.0254
0
VERTEX
8
100
10
124.3965
20
109.7280
42
1.0
0
VERTEX
8
100
10
124.7775
20
109.7280
42
1.0
0
VERTEX
8
100
10
124.3965
20
109.7280
0
SEQEND
0
CIRCLE
8
100
62
3
10
124.5870
20
109.7280
40
0.1905
0
CIRCLE
8
100
62
3
10
117.8560
20
109.7280
40
0.3810
0
POLYLINE
8
100
66
1
40
0.0254
41
0.0254
0
VERTEX
8
100
10
117.6655
20
109.7280
42
1.0
0
VERTEX
8
100
10
118.0465
20
109.7280
42
1.0
0
VERTEX
8
100
10
117.6655
20
109.7280
0
SEQEND
0
CIRCLE
8
100
62
3
10
117.8560
20
109.7280
40
0.1905
0
CIRCLE
8
100
62
3
10
124.5870
20
54.8640
40
0.3810
0
POLYLINE
8
100
66
1
40
0.0254
41
0.0254
0
VERTEX
8
100
10
124.3965
20
54.8640
42
1.0
0
VERTEX
8
100
10
124.7775
20
54.8640
42
1.0
0
VERTEX
8
100
10
124.3965
20
54.8640
0
SEQEND
0
CIRCLE
8
100
62
3
10
124.5870
20
54.8640
40
0.1905
0
CIRCLE
8
100
62
3
10
118.1100
20
54.8640
40
0.3810
0
POLYLINE
8
100
66
1
40
0.0254
41
0.0254
0
VERTEX
8
100
10
117.9195
20
54.8640
42
1.0
0
VERTEX
8
100
10
118.3005
20
54.8640
42
1.0
0
VERTEX
8
100
10
117.9195
20
54.8640
0
SEQEND
0
CIRCLE
8
100
62
3
10
118.1100
20
54.8640
40
0.1905
0
CIRCLE
8
100
62
3
10
113.6650
20
33.1470
40
0.3810
0
POLYLINE
8
100
66
1
40
0.0254
41
0.0254
0
VERTEX
8
100
10
113.4745
20
33.1470
42
1.0
0
VERTEX
8
100
10
113.8555
20
33.1470
42
1.0
0
VERTEX
8
100
10
113.4745
20
33.1470
0
SEQEND
0
CIRCLE
8
100
62
3
10
113.6650
20
33.1470
40
0.1905
0
CIRCLE
8
100
62
3
10
113.6650
20
26.5430
40
0.3810
0
POLYLINE
8
100
66
1
40
0.0254
41
0.0254
0
VERTEX
8
100
10
113.4745
20
26.5430
42
1.0
0
VERTEX
8
100
10
113.8555
20
26.5430
42
1.0
0
VERTEX
8
100
10
113.4745
20
26.5430
0
SEQEND
0
CIRCLE
8
100
62
3
10
113.6650
20
26.5430
40
0.1905
0
CIRCLE
8
100
62
3
10
75.6920
20
29.7180
40
0.3810
0
POLYLINE
8
100
66
1
40
0.0254
41
0.0254
0
VERTEX
8
100
10
75.5015
20
29.7180
42
1.0
0
VERTEX
8
100
10
75.8825
20
29.7180
42
1.0
0
VERTEX
8
100
10
75.5015
20
29.7180
0
SEQEND
0
CIRCLE
8
100
62
3
10
75.6920
20
29.7180
40
0.1905
0
CIRCLE
8
100
62
3
10
73.6600
20
34.7980
40
0.3810
0
POLYLINE
8
100
66
1
40
0.0254
41
0.0254
0
VERTEX
8
100
10
73.4695
20
34.7980
42
1.0
0
VERTEX
8
100
10
73.8505
20
34.7980
42
1.0
0
VERTEX
8
100
10
73.4695
20
34.7980
0
SEQEND
0
CIRCLE
8
100
62
3
10
73.6600
20
34.7980
40
0.1905
0
CIRCLE
8
100
62
3
10
68.1990
20
30.7340
40
0.3810
0
POLYLINE
8
100
66
1
40
0.0254
41
0.0254
0
VERTEX
8
100
10
68.0085
20
30.7340
42
1.0
0
VERTEX
8
100
10
68.3895
20
30.7340
42
1.0
0
VERTEX
8
100
10
68.0085
20
30.7340
0
SEQEND
0
CIRCLE
8
100
62
3
10
68.1990
20
30.7340
40
0.1905
0
CIRCLE
8
100
62
3
10
68.1990
20
25.2730
40
0.3810
0
POLYLINE
8
100
66
1
40
0.0254
41
0.0254
0
VERTEX
8
100
10
68.0085
20
25.2730
42
1.0
0
VERTEX
8
100
10
68.3895
20
25.2730
42
1.0
0
VERTEX
8
100
10
68.0085
20
25.2730
0
SEQEND
0
CIRCLE
8
100
62
3
10
68.1990
20
25.2730
40
0.1905
0
CIRCLE
8
100
62
3
10
33.1470
20
25.0190
40
0.3810
0
POLYLINE
8
100
66
1
40
0.0254
41
0.0254
0
VERTEX
8
100
10
32.9565
20
25.0190
42
1.0
0
VERTEX
8
100
10
33.3375
20
25.0190
42
1.0
0
VERTEX
8
100
10
32.9565
20
25.0190
0
SEQEND
0
CIRCLE
8
100
62
3
10
33.1470
20
25.0190
40
0.1905
0
CIRCLE
8
100
62
3
10
41.2750
20
25.0190
40
0.3810
0
POLYLINE
8
100
66
1
40
0.0254
41
0.0254
0
VERTEX
8
100
10
41.0845
20
25.0190
42
1.0
0
VERTEX
8
100
10
41.4655
20
25.0190
42
1.0
0
VERTEX
8
100
10
41.0845
20
25.0190
0
SEQEND
0
CIRCLE
8
100
62
3
10
41.2750
20
25.0190
40
0.1905
0
CIRCLE
8
100
62
3
10
41.4020
20
27.3050
40
0.3810
0
POLYLINE
8
100
66
1
40
0.0254
41
0.0254
0
VERTEX
8
100
10
41.2115
20
27.3050
42
1.0
0
VERTEX
8
100
10
41.5925
20
27.3050
42
1.0
0
VERTEX
8
100
10
41.2115
20
27.3050
0
SEQEND
0
CIRCLE
8
100
62
3
10
41.4020
20
27.3050
40
0.1905
0
CIRCLE
8
100
62
3
10
33.1470
20
27.3050
40
0.3810
0
POLYLINE
8
100
66
1
40
0.0254
41
0.0254
0
VERTEX
8
100
10
32.9565
20
27.3050
42
1.0
0
VERTEX
8
100
10
33.3375
20
27.3050
42
1.0
0
VERTEX
8
100
10
32.9565
20
27.3050
0
SEQEND
0
CIRCLE
8
100
62
3
10
33.1470
20
27.3050
40
0.1905
0
CIRCLE
8
100
62
3
10
38.9890
20
28.8290
40
0.3810
0
POLYLINE
8
100
66
1
40
0.0254
41
0.0254
0
VERTEX
8
100
10
38.7985
20
28.8290
42
1.0
0
VERTEX
8
100
10
39.1795
20
28.8290
42
1.0
0
VERTEX
8
100
10
38.7985
20
28.8290
0
SEQEND
0
CIRCLE
8
100
62
3
10
38.9890
20
28.8290
40
0.1905
0
CIRCLE
8
100
62
3
10
38.9890
20
28.8290
40
0.3810
0
POLYLINE
8
100
66
1
40
0.0254
41
0.0254
0
VERTEX
8
100
10
38.7985
20
28.8290
42
1.0
0
VERTEX
8
100
10
39.1795
20
28.8290
42
1.0
0
VERTEX
8
100
10
38.7985
20
28.8290
0
SEQEND
0
CIRCLE
8
100
62
3
10
38.9890
20
28.8290
40
0.1905
0
CIRCLE
8
100
62
3
10
99.9490
20
41.9100
40
0.3810
0
POLYLINE
8
100
66
1
40
0.0254
41
0.0254
0
VERTEX
8
100
10
99.7585
20
41.9100
42
1.0
0
VERTEX
8
100
10
100.1395
20
41.9100
42
1.0
0
VERTEX
8
100
10
99.7585
20
41.9100
0
SEQEND
0
CIRCLE
8
100
62
3
10
99.9490
20
41.9100
40
0.1905
0
CIRCLE
8
100
62
3
10
99.9490
20
37.4650
40
0.3810
0
POLYLINE
8
100
66
1
40
0.0254
41
0.0254
0
VERTEX
8
100
10
99.7585
20
37.4650
42
1.0
0
VERTEX
8
100
10
100.1395
20
37.4650
42
1.0
0
VERTEX
8
100
10
99.7585
20
37.4650
0
SEQEND
0
CIRCLE
8
100
62
3
10
99.9490
20
37.4650
40
0.1905
0
CIRCLE
8
100
62
7
10
106.2990
20
37.4650
40
0.7874
0
POLYLINE
8
100
66
1
40
0.0508
41
0.0508
0
VERTEX
8
100
10
105.9053
20
37.4650
42
1.0
0
VERTEX
8
100
10
106.6927
20
37.4650
42
1.0
0
VERTEX
8
100
10
105.9053
20
37.4650
0
SEQEND
0
CIRCLE
8
100
62
7
10
106.2990
20
37.4650
40
0.5080
0
CIRCLE
8
100
62
7
10
107.4420
20
41.9100
40
0.7874
0
POLYLINE
8
100
66
1
40
0.0508
41
0.0508
0
VERTEX
8
100
10
107.0483
20
41.9100
42
1.0
0
VERTEX
8
100
10
107.8357
20
41.9100
42
1.0
0
VERTEX
8
100
10
107.0483
20
41.9100
0
SEQEND
0
CIRCLE
8
100
62
7
10
107.4420
20
41.9100
40
0.5080
0
CIRCLE
8
100
62
3
10
102.4890
20
29.8450
40
0.3810
0
POLYLINE
8
100
66
1
40
0.0254
41
0.0254
0
VERTEX
8
100
10
102.2985
20
29.8450
42
1.0
0
VERTEX
8
100
10
102.6795
20
29.8450
42
1.0
0
VERTEX
8
100
10
102.2985
20
29.8450
0
SEQEND
0
CIRCLE
8
100
62
3
10
102.4890
20
29.8450
40
0.1905
0
CIRCLE
8
100
62
3
10
96.9010
20
26.6700
40
0.3810
0
POLYLINE
8
100
66
1
40
0.0254
41
0.0254
0
VERTEX
8
100
10
96.7105
20
26.6700
42
1.0
0
VERTEX
8
100
10
97.0915
20
26.6700
42
1.0
0
VERTEX
8
100
10
96.7105
20
26.6700
0
SEQEND
0
CIRCLE
8
100
62
3
10
96.9010
20
26.6700
40
0.1905
0
CIRCLE
8
100
62
3
10
25.2730
20
39.2430
40
0.3810
0
POLYLINE
8
100
66
1
40
0.0254
41
0.0254
0
VERTEX
8
100
10
25.0825
20
39.2430
42
1.0
0
VERTEX
8
100
10
25.4635
20
39.2430
42
1.0
0
VERTEX
8
100
10
25.0825
20
39.2430
0
SEQEND
0
CIRCLE
8
100
62
3
10
25.2730
20
39.2430
40
0.1905
0
CIRCLE
8
100
62
3
10
67.9450
20
92.5830
40
0.3810
0
POLYLINE
8
100
66
1
40
0.0254
41
0.0254
0
VERTEX
8
100
10
67.7545
20
92.5830
42
1.0
0
VERTEX
8
100
10
68.1355
20
92.5830
42
1.0
0
VERTEX
8
100
10
67.7545
20
92.5830
0
SEQEND
0
CIRCLE
8
100
62
3
10
67.9450
20
92.5830
40
0.1905
0
CIRCLE
8
100
62
7
10
84.8360
20
98.1710
40
0.3810
0
POLYLINE
8
100
66
1
40
0.0254
41
0.0254
0
VERTEX
8
100
10
84.6455
20
98.1710
42
1.0
0
VERTEX
8
100
10
85.0265
20
98.1710
42
1.0
0
VERTEX
8
100
10
84.6455
20
98.1710
0
SEQEND
0
CIRCLE
8
100
62
7
10
84.8360
20
98.1710
40
0.1905
0
CIRCLE
8
100
62
7
10
92.0750
20
96.6470
40
0.7874
0
POLYLINE
8
100
66
1
40
0.0508
41
0.0508
0
VERTEX
8
100
10
91.6813
20
96.6470
42
1.0
0
VERTEX
8
100
10
92.4687
20
96.6470
42
1.0
0
VERTEX
8
100
10
91.6813
20
96.6470
0
SEQEND
0
CIRCLE
8
100
62
7
10
92.0750
20
96.6470
40
0.5080
0
CIRCLE
8
100
62
7
10
82.6770
20
106.5530
40
0.7874
0
POLYLINE
8
100
66
1
40
0.0508
41
0.0508
0
VERTEX
8
100
10
82.2833
20
106.5530
42
1.0
0
VERTEX
8
100
10
83.0707
20
106.5530
42
1.0
0
VERTEX
8
100
10
82.2833
20
106.5530
0
SEQEND
0
CIRCLE
8
100
62
7
10
82.6770
20
106.5530
40
0.5080
0
CIRCLE
8
100
62
7
10
35.7886
20
78.5368
40
0.7874
0
POLYLINE
8
100
66
1
40
0.0508
41
0.0508
0
VERTEX
8
100
10
35.3949
20
78.5368
42
1.0
0
VERTEX
8
100
10
36.1823
20
78.5368
42
1.0
0
VERTEX
8
100
10
35.3949
20
78.5368
0
SEQEND
0
CIRCLE
8
100
62
7
10
35.7886
20
78.5368
40
0.5080
0
CIRCLE
8
100
62
7
10
51.0540
20
87.6300
40
0.7874
0
POLYLINE
8
100
66
1
40
0.0508
41
0.0508
0
VERTEX
8
100
10
50.6603
20
87.6300
42
1.0
0
VERTEX
8
100
10
51.4477
20
87.6300
42
1.0
0
VERTEX
8
100
10
50.6603
20
87.6300
0
SEQEND
0
CIRCLE
8
100
62
7
10
51.0540
20
87.6300
40
0.5080
0
CIRCLE
8
100
62
7
10
43.0530
20
97.9170
40
0.7874
0
POLYLINE
8
100
66
1
40
0.0508
41
0.0508
0
VERTEX
8
100
10
42.6593
20
97.9170
42
1.0
0
VERTEX
8
100
10
43.4467
20
97.9170
42
1.0
0
VERTEX
8
100
10
42.6593
20
97.9170
0
SEQEND
0
CIRCLE
8
100
62
7
10
43.0530
20
97.9170
40
0.5080
0
CIRCLE
8
100
62
7
10
47.4218
20
81.6356
40
0.3810
0
POLYLINE
8
100
66
1
40
0.0254
41
0.0254
0
VERTEX
8
100
10
47.2313
20
81.6356
42
1.0
0
VERTEX
8
100
10
47.6123
20
81.6356
42
1.0
0
VERTEX
8
100
10
47.2313
20
81.6356
0
SEQEND
0
CIRCLE
8
100
62
7
10
47.4218
20
81.6356
40
0.1905
0
CIRCLE
8
100
62
7
10
49.9364
20
81.1784
40
0.3810
0
POLYLINE
8
100
66
1
40
0.0254
41
0.0254
0
VERTEX
8
100
10
49.7459
20
81.1784
42
1.0
0
VERTEX
8
100
10
50.1269
20
81.1784
42
1.0
0
VERTEX
8
100
10
49.7459
20
81.1784
0
SEQEND
0
CIRCLE
8
100
62
7
10
49.9364
20
81.1784
40
0.1905
0
CIRCLE
8
100
62
7
10
53.8226
20
80.6196
40
0.3810
0
POLYLINE
8
100
66
1
40
0.0254
41
0.0254
0
VERTEX
8
100
10
53.6321
20
80.6196
42
1.0
0
VERTEX
8
100
10
54.0131
20
80.6196
42
1.0
0
VERTEX
8
100
10
53.6321
20
80.6196
0
SEQEND
0
CIRCLE
8
100
62
7
10
53.8226
20
80.6196
40
0.1905
0
CIRCLE
8
100
62
7
10
53.8480
20
76.5302
40
0.3810
0
POLYLINE
8
100
66
1
40
0.0254
41
0.0254
0
VERTEX
8
100
10
53.6575
20
76.5302
42
1.0
0
VERTEX
8
100
10
54.0385
20
76.5302
42
1.0
0
VERTEX
8
100
10
53.6575
20
76.5302
0
SEQEND
0
CIRCLE
8
100
62
7
10
53.8480
20
76.5302
40
0.1905
0
CIRCLE
8
100
62
7
10
49.4030
20
71.1962
40
0.3810
0
POLYLINE
8
100
66
1
40
0.0254
41
0.0254
0
VERTEX
8
100
10
49.2125
20
71.1962
42
1.0
0
VERTEX
8
100
10
49.5935
20
71.1962
42
1.0
0
VERTEX
8
100
10
49.2125
20
71.1962
0
SEQEND
0
CIRCLE
8
100
62
7
10
49.4030
20
71.1962
40
0.1905
0
CIRCLE
8
100
62
7
10
46.9392
20
72.3646
40
0.3810
0
POLYLINE
8
100
66
1
40
0.0254
41
0.0254
0
VERTEX
8
100
10
46.7487
20
72.3646
42
1.0
0
VERTEX
8
100
10
47.1297
20
72.3646
42
1.0
0
VERTEX
8
100
10
46.7487
20
72.3646
0
SEQEND
0
CIRCLE
8
100
62
7
10
46.9392
20
72.3646
40
0.1905
0
CIRCLE
8
100
62
7
10
43.2816
20
72.7964
40
0.3810
0
POLYLINE
8
100
66
1
40
0.0254
41
0.0254
0
VERTEX
8
100
10
43.0911
20
72.7964
42
1.0
0
VERTEX
8
100
10
43.4721
20
72.7964
42
1.0
0
VERTEX
8
100
10
43.0911
20
72.7964
0
SEQEND
0
CIRCLE
8
100
62
7
10
43.2816
20
72.7964
40
0.1905
0
CIRCLE
8
100
62
7
10
43.2562
20
76.5302
40
0.3810
0
POLYLINE
8
100
66
1
40
0.0254
41
0.0254
0
VERTEX
8
100
10
43.0657
20
76.5302
42
1.0
0
VERTEX
8
100
10
43.4467
20
76.5302
42
1.0
0
VERTEX
8
100
10
43.0657
20
76.5302
0
SEQEND
0
CIRCLE
8
100
62
7
10
43.2562
20
76.5302
40
0.1905
0
CIRCLE
8
100
62
3
10
44.9580
20
99.5680
40
0.3810
0
POLYLINE
8
100
66
1
40
0.0254
41
0.0254
0
VERTEX
8
100
10
44.7675
20
99.5680
42
1.0
0
VERTEX
8
100
10
45.1485
20
99.5680
42
1.0
0
VERTEX
8
100
10
44.7675
20
99.5680
0
SEQEND
0
CIRCLE
8
100
62
3
10
44.9580
20
99.5680
40
0.1905
0
CIRCLE
8
100
62
7
10
49.4030
20
99.5680
40
0.3810
0
POLYLINE
8
100
66
1
40
0.0254
41
0.0254
0
VERTEX
8
100
10
49.2125
20
99.5680
42
1.0
0
VERTEX
8
100
10
49.5935
20
99.5680
42
1.0
0
VERTEX
8
100
10
49.2125
20
99.5680
0
SEQEND
0
CIRCLE
8
100
62
7
10
49.4030
20
99.5680
40
0.1905
0
CIRCLE
8
100
62
7
10
52.1970
20
101.6000
40
0.3810
0
POLYLINE
8
100
66
1
40
0.0254
41
0.0254
0
VERTEX
8
100
10
52.0065
20
101.6000
42
1.0
0
VERTEX
8
100
10
52.3875
20
101.6000
42
1.0
0
VERTEX
8
100
10
52.0065
20
101.6000
0
SEQEND
0
CIRCLE
8
100
62
7
10
52.1970
20
101.6000
40
0.1905
0
CIRCLE
8
100
62
3
10
52.1970
20
96.5200
40
0.3810
0
POLYLINE
8
100
66
1
40
0.0254
41
0.0254
0
VERTEX
8
100
10
52.0065
20
96.5200
42
1.0
0
VERTEX
8
100
10
52.3875
20
96.5200
42
1.0
0
VERTEX
8
100
10
52.0065
20
96.5200
0
SEQEND
0
CIRCLE
8
100
62
3
10
52.1970
20
96.5200
40
0.1905
0
CIRCLE
8
100
62
3
10
44.3992
20
81.4578
40
0.3810
0
POLYLINE
8
100
66
1
40
0.0254
41
0.0254
0
VERTEX
8
100
10
44.2087
20
81.4578
42
1.0
0
VERTEX
8
100
10
44.5897
20
81.4578
42
1.0
0
VERTEX
8
100
10
44.2087
20
81.4578
0
SEQEND
0
CIRCLE
8
100
62
3
10
44.3992
20
81.4578
40
0.1905
0
CIRCLE
8
100
62
3
10
51.4096
20
82.1690
40
0.3810
0
POLYLINE
8
100
66
1
40
0.0254
41
0.0254
0
VERTEX
8
100
10
51.2191
20
82.1690
42
1.0
0
VERTEX
8
100
10
51.6001
20
82.1690
42
1.0
0
VERTEX
8
100
10
51.2191
20
82.1690
0
SEQEND
0
CIRCLE
8
100
62
3
10
51.4096
20
82.1690
40
0.1905
0
CIRCLE
8
100
62
3
10
53.7464
20
82.2452
40
0.3810
0
POLYLINE
8
100
66
1
40
0.0254
41
0.0254
0
VERTEX
8
100
10
53.5559
20
82.2452
42
1.0
0
VERTEX
8
100
10
53.9369
20
82.2452
42
1.0
0
VERTEX
8
100
10
53.5559
20
82.2452
0
SEQEND
0
CIRCLE
8
100
62
3
10
53.7464
20
82.2452
40
0.1905
0
CIRCLE
8
100
62
3
10
53.9496
20
79.0194
40
0.3810
0
POLYLINE
8
100
66
1
40
0.0254
41
0.0254
0
VERTEX
8
100
10
53.7591
20
79.0194
42
1.0
0
VERTEX
8
100
10
54.1401
20
79.0194
42
1.0
0
VERTEX
8
100
10
53.7591
20
79.0194
0
SEQEND
0
CIRCLE
8
100
62
3
10
53.9496
20
79.0194
40
0.1905
0
CIRCLE
8
100
62
3
10
52.0954
20
74.7268
40
0.3810
0
POLYLINE
8
100
66
1
40
0.0254
41
0.0254
0
VERTEX
8
100
10
51.9049
20
74.7268
42
1.0
0
VERTEX
8
100
10
52.2859
20
74.7268
42
1.0
0
VERTEX
8
100
10
51.9049
20
74.7268
0
SEQEND
0
CIRCLE
8
100
62
3
10
52.0954
20
74.7268
40
0.1905
0
CIRCLE
8
100
62
3
10
52.7304
20
72.8726
40
0.3810
0
POLYLINE
8
100
66
1
40
0.0254
41
0.0254
0
VERTEX
8
100
10
52.5399
20
72.8726
42
1.0
0
VERTEX
8
100
10
52.9209
20
72.8726
42
1.0
0
VERTEX
8
100
10
52.5399
20
72.8726
0
SEQEND
0
CIRCLE
8
100
62
3
10
52.7304
20
72.8726
40
0.1905
0
CIRCLE
8
100
62
3
10
52.4256
20
71.2724
40
0.3810
0
POLYLINE
8
100
66
1
40
0.0254
41
0.0254
0
VERTEX
8
100
10
52.2351
20
71.2724
42
1.0
0
VERTEX
8
100
10
52.6161
20
71.2724
42
1.0
0
VERTEX
8
100
10
52.2351
20
71.2724
0
SEQEND
0
CIRCLE
8
100
62
3
10
52.4256
20
71.2724
40
0.1905
0
CIRCLE
8
100
62
3
10
45.4406
20
70.9168
40
0.3810
0
POLYLINE
8
100
66
1
40
0.0254
41
0.0254
0
VERTEX
8
100
10
45.2501
20
70.9168
42
1.0
0
VERTEX
8
100
10
45.6311
20
70.9168
42
1.0
0
VERTEX
8
100
10
45.2501
20
70.9168
0
SEQEND
0
CIRCLE
8
100
62
3
10
45.4406
20
70.9168
40
0.1905
0
CIRCLE
8
100
62
3
10
43.3578
20
71.1200
40
0.3810
0
POLYLINE
8
100
66
1
40
0.0254
41
0.0254
0
VERTEX
8
100
10
43.1673
20
71.1200
42
1.0
0
VERTEX
8
100
10
43.5483
20
71.1200
42
1.0
0
VERTEX
8
100
10
43.1673
20
71.1200
0
SEQEND
0
CIRCLE
8
100
62
3
10
43.3578
20
71.1200
40
0.1905
0
CIRCLE
8
100
62
3
10
44.8564
20
74.7522
40
0.3810
0
POLYLINE
8
100
66
1
40
0.0254
41
0.0254
0
VERTEX
8
100
10
44.6659
20
74.7522
42
1.0
0
VERTEX
8
100
10
45.0469
20
74.7522
42
1.0
0
VERTEX
8
100
10
44.6659
20
74.7522
0
SEQEND
0
CIRCLE
8
100
62
3
10
44.8564
20
74.7522
40
0.1905
0
CIRCLE
8
100
62
3
10
44.5008
20
79.5020
40
0.3810
0
POLYLINE
8
100
66
1
40
0.0254
41
0.0254
0
VERTEX
8
100
10
44.3103
20
79.5020
42
1.0
0
VERTEX
8
100
10
44.6913
20
79.5020
42
1.0
0
VERTEX
8
100
10
44.3103
20
79.5020
0
SEQEND
0
CIRCLE
8
100
62
3
10
44.5008
20
79.5020
40
0.1905
0
CIRCLE
8
100
62
3
10
93.5990
20
102.7430
40
0.3810
0
POLYLINE
8
100
66
1
40
0.0254
41
0.0254
0
VERTEX
8
100
10
93.4085
20
102.7430
42
1.0
0
VERTEX
8
100
10
93.7895
20
102.7430
42
1.0
0
VERTEX
8
100
10
93.4085
20
102.7430
0
SEQEND
0
CIRCLE
8
100
62
3
10
93.5990
20
102.7430
40
0.1905
0
CIRCLE
8
100
62
3
10
88.7730
20
106.9340
40
0.3810
0
POLYLINE
8
100
66
1
40
0.0254
41
0.0254
0
VERTEX
8
100
10
88.5825
20
106.9340
42
1.0
0
VERTEX
8
100
10
88.9635
20
106.9340
42
1.0
0
VERTEX
8
100
10
88.5825
20
106.9340
0
SEQEND
0
CIRCLE
8
100
62
3
10
88.7730
20
106.9340
40
0.1905
0
CIRCLE
8
100
62
3
10
97.1550
20
116.8400
40
0.3810
0
POLYLINE
8
100
66
1
40
0.0254
41
0.0254
0
VERTEX
8
100
10
96.9645
20
116.8400
42
1.0
0
VERTEX
8
100
10
97.3455
20
116.8400
42
1.0
0
VERTEX
8
100
10
96.9645
20
116.8400
0
SEQEND
0
CIRCLE
8
100
62
3
10
97.1550
20
116.8400
40
0.1905
0
CIRCLE
8
100
62
3
10
94.1070
20
114.8080
40
0.3810
0
POLYLINE
8
100
66
1
40
0.0254
41
0.0254
0
VERTEX
8
100
10
93.9165
20
114.8080
42
1.0
0
VERTEX
8
100
10
94.2975
20
114.8080
42
1.0
0
VERTEX
8
100
10
93.9165
20
114.8080
0
SEQEND
0
CIRCLE
8
100
62
3
10
94.1070
20
114.8080
40
0.1905
0
CIRCLE
8
100
62
3
10
94.1070
20
118.6180
40
0.3810
0
POLYLINE
8
100
66
1
40
0.0254
41
0.0254
0
VERTEX
8
100
10
93.9165
20
118.6180
42
1.0
0
VERTEX
8
100
10
94.2975
20
118.6180
42
1.0
0
VERTEX
8
100
10
93.9165
20
118.6180
0
SEQEND
0
CIRCLE
8
100
62
3
10
94.1070
20
118.6180
40
0.1905
0
CIRCLE
8
100
62
3
10
76.4540
20
121.2850
40
0.3810
0
POLYLINE
8
100
66
1
40
0.0254
41
0.0254
0
VERTEX
8
100
10
76.2635
20
121.2850
42
1.0
0
VERTEX
8
100
10
76.6445
20
121.2850
42
1.0
0
VERTEX
8
100
10
76.2635
20
121.2850
0
SEQEND
0
CIRCLE
8
100
62
3
10
76.4540
20
121.2850
40
0.1905
0
CIRCLE
8
100
62
3
10
76.4540
20
106.6800
40
0.3810
0
POLYLINE
8
100
66
1
40
0.0254
41
0.0254
0
VERTEX
8
100
10
76.2635
20
106.6800
42
1.0
0
VERTEX
8
100
10
76.6445
20
106.6800
42
1.0
0
VERTEX
8
100
10
76.2635
20
106.6800
0
SEQEND
0
CIRCLE
8
100
62
3
10
76.4540
20
106.6800
40
0.1905
0
CIRCLE
8
100
62
7
10
56.0070
20
87.3760
40
0.3810
0
POLYLINE
8
100
66
1
40
0.0254
41
0.0254
0
VERTEX
8
100
10
55.8165
20
87.3760
42
1.0
0
VERTEX
8
100
10
56.1975
20
87.3760
42
1.0
0
VERTEX
8
100
10
55.8165
20
87.3760
0
SEQEND
0
CIRCLE
8
100
62
7
10
56.0070
20
87.3760
40
0.1905
0
CIRCLE
8
100
62
3
10
61.5950
20
87.3760
40
0.3810
0
POLYLINE
8
100
66
1
40
0.0254
41
0.0254
0
VERTEX
8
100
10
61.4045
20
87.3760
42
1.0
0
VERTEX
8
100
10
61.7855
20
87.3760
42
1.0
0
VERTEX
8
100
10
61.4045
20
87.3760
0
SEQEND
0
CIRCLE
8
100
62
3
10
61.5950
20
87.3760
40
0.1905
0
CIRCLE
8
100
62
3
10
38.7350
20
121.9200
40
0.3810
0
POLYLINE
8
100
66
1
40
0.0254
41
0.0254
0
VERTEX
8
100
10
38.5445
20
121.9200
42
1.0
0
VERTEX
8
100
10
38.9255
20
121.9200
42
1.0
0
VERTEX
8
100
10
38.5445
20
121.9200
0
SEQEND
0
CIRCLE
8
100
62
3
10
38.7350
20
121.9200
40
0.1905
0
CIRCLE
8
100
62
3
10
38.7350
20
113.0300
40
0.3810
0
POLYLINE
8
100
66
1
40
0.0254
41
0.0254
0
VERTEX
8
100
10
38.5445
20
113.0300
42
1.0
0
VERTEX
8
100
10
38.9255
20
113.0300
42
1.0
0
VERTEX
8
100
10
38.5445
20
113.0300
0
SEQEND
0
CIRCLE
8
100
62
3
10
38.7350
20
113.0300
40
0.1905
0
CIRCLE
8
100
62
3
10
38.9890
20
104.1400
40
0.3810
0
POLYLINE
8
100
66
1
40
0.0254
41
0.0254
0
VERTEX
8
100
10
38.7985
20
104.1400
42
1.0
0
VERTEX
8
100
10
39.1795
20
104.1400
42
1.0
0
VERTEX
8
100
10
38.7985
20
104.1400
0
SEQEND
0
CIRCLE
8
100
62
3
10
38.9890
20
104.1400
40
0.1905
0
CIRCLE
8
100
62
3
10
38.9890
20
95.2500
40
0.3810
0
POLYLINE
8
100
66
1
40
0.0254
41
0.0254
0
VERTEX
8
100
10
38.7985
20
95.2500
42
1.0
0
VERTEX
8
100
10
39.1795
20
95.2500
42
1.0
0
VERTEX
8
100
10
38.7985
20
95.2500
0
SEQEND
0
CIRCLE
8
100
62
3
10
38.9890
20
95.2500
40
0.1905
0
CIRCLE
8
100
62
7
10
27.8130
20
87.3760
40
0.3810
0
POLYLINE
8
100
66
1
40
0.0254
41
0.0254
0
VERTEX
8
100
10
27.6225
20
87.3760
42
1.0
0
VERTEX
8
100
10
28.0035
20
87.3760
42
1.0
0
VERTEX
8
100
10
27.6225
20
87.3760
0
SEQEND
0
CIRCLE
8
100
62
7
10
27.8130
20
87.3760
40
0.1905
0
CIRCLE
8
100
62
3
10
33.0200
20
84.5820
40
0.3810
0
POLYLINE
8
100
66
1
40
0.0254
41
0.0254
0
VERTEX
8
100
10
32.8295
20
84.5820
42
1.0
0
VERTEX
8
100
10
33.2105
20
84.5820
42
1.0
0
VERTEX
8
100
10
32.8295
20
84.5820
0
SEQEND
0
CIRCLE
8
100
62
3
10
33.0200
20
84.5820
40
0.1905
0
CIRCLE
8
100
62
3
10
29.7180
20
77.7240
40
0.3810
0
POLYLINE
8
100
66
1
40
0.0254
41
0.0254
0
VERTEX
8
100
10
29.5275
20
77.7240
42
1.0
0
VERTEX
8
100
10
29.9085
20
77.7240
42
1.0
0
VERTEX
8
100
10
29.5275
20
77.7240
0
SEQEND
0
CIRCLE
8
100
62
3
10
29.7180
20
77.7240
40
0.1905
0
SOLID
8
100
10
13.9700
20
17.7800
11
13.9700
21
43.1800
12
21.5900
22
17.7800
13
21.5900
23
43.1800
0
CIRCLE
8
100
62
7
10
17.7800
20
30.4800
40
0.0000
0
SOLID
8
100
10
13.9700
20
21.5900
11
13.9700
21
46.9900
12
21.5900
22
21.5900
13
21.5900
23
46.9900
0
CIRCLE
8
100
62
7
10
17.7800
20
34.2900
40
0.0000
0
SOLID
8
100
10
13.9700
20
105.4100
11
13.9700
21
130.8100
12
21.5900
22
105.4100
13
21.5900
23
130.8100
0
CIRCLE
8
100
62
7
10
17.7800
20
118.1100
40
0.0000
0
SOLID
8
100
10
13.9700
20
109.2200
11
13.9700
21
134.6200
12
21.5900
22
109.2200
13
21.5900
23
134.6200
0
CIRCLE
8
100
62
7
10
17.7800
20
121.9200
40
0.0000
0
SOLID
8
100
10
13.9700
20
17.7800
11
13.9700
21
43.1800
12
21.5900
22
17.7800
13
21.5900
23
43.1800
0
CIRCLE
8
100
62
7
10
17.7800
20
30.4800
40
0.0000
0
SOLID
8
100
10
13.9700
20
21.5900
11
13.9700
21
46.9900
12
21.5900
22
21.5900
13
21.5900
23
46.9900
0
CIRCLE
8
100
62
7
10
17.7800
20
34.2900
40
0.0000
0
SOLID
8
100
10
13.9700
20
105.4100
11
13.9700
21
130.8100
12
21.5900
22
105.4100
13
21.5900
23
130.8100
0
CIRCLE
8
100
62
7
10
17.7800
20
118.1100
40
0.0000
0
SOLID
8
100
10
13.9700
20
109.2200
11
13.9700
21
134.6200
12
21.5900
22
109.2200
13
21.5900
23
134.6200
0
CIRCLE
8
100
62
7
10
17.7800
20
121.9200
40
0.0000
0
CIRCLE
8
100
62
3
10
105.4100
20
134.6200
40
3.8100
0
POLYLINE
8
100
66
1
40
0.1270
41
0.1270
0
VERTEX
8
100
10
103.5050
20
134.6200
42
1.0
0
VERTEX
8
100
10
107.3150
20
134.6200
42
1.0
0
VERTEX
8
100
10
103.5050
20
134.6200
0
SEQEND
0
CIRCLE
8
100
62
3
10
105.4100
20
134.6200
40
1.5875
0
CIRCLE
8
100
62
3
10
105.4100
20
17.7800
40
3.8100
0
POLYLINE
8
100
66
1
40
0.1270
41
0.1270
0
VERTEX
8
100
10
103.5050
20
17.7800
42
1.0
0
VERTEX
8
100
10
107.3150
20
17.7800
42
1.0
0
VERTEX
8
100
10
103.5050
20
17.7800
0
SEQEND
0
CIRCLE
8
100
62
3
10
105.4100
20
17.7800
40
1.5875
0
SOLID
8
100
10
130.8100
20
109.2200
11
130.8100
21
134.6200
12
138.4300
22
109.2200
13
138.4300
23
134.6200
0
CIRCLE
8
100
62
7
10
134.6200
20
121.9200
40
0.0000
0
SOLID
8
100
10
109.2200
20
130.8100
11
109.2200
21
138.4300
12
134.6200
22
130.8100
13
134.6200
23
138.4300
0
CIRCLE
8
100
62
7
10
121.9200
20
134.6200
40
0.0000
0
SOLID
8
100
10
109.2200
20
13.9700
11
109.2200
21
21.5900
12
134.6200
22
13.9700
13
134.6200
23
21.5900
0
CIRCLE
8
100
62
7
10
121.9200
20
17.7800
40
0.0000
0
SOLID
8
100
10
130.8100
20
109.2200
11
130.8100
21
134.6200
12
138.4300
22
109.2200
13
138.4300
23
134.6200
0
CIRCLE
8
100
62
7
10
134.6200
20
121.9200
40
0.0000
0
SOLID
8
100
10
109.2200
20
130.8100
11
109.2200
21
138.4300
12
134.6200
22
130.8100
13
134.6200
23
138.4300
0
CIRCLE
8
100
62
7
10
121.9200
20
134.6200
40
0.0000
0
SOLID
8
100
10
109.2200
20
13.9700
11
109.2200
21
21.5900
12
134.6200
22
13.9700
13
134.6200
23
21.5900
0
CIRCLE
8
100
62
7
10
121.9200
20
17.7800
40
0.0000
0
CIRCLE
8
100
62
3
10
134.6200
20
134.6200
40
3.8100
0
POLYLINE
8
100
66
1
40
0.1270
41
0.1270
0
VERTEX
8
100
10
132.7150
20
134.6200
42
1.0
0
VERTEX
8
100
10
136.5250
20
134.6200
42
1.0
0
VERTEX
8
100
10
132.7150
20
134.6200
0
SEQEND
0
CIRCLE
8
100
62
3
10
134.6200
20
134.6200
40
1.5875
0
CIRCLE
8
100
62
3
10
17.7800
20
134.6200
40
3.8100
0
POLYLINE
8
100
66
1
40
0.1270
41
0.1270
0
VERTEX
8
100
10
15.8750
20
134.6200
42
1.0
0
VERTEX
8
100
10
19.6850
20
134.6200
42
1.0
0
VERTEX
8
100
10
15.8750
20
134.6200
0
SEQEND
0
CIRCLE
8
100
62
3
10
17.7800
20
134.6200
40
1.5875
0
CIRCLE
8
100
62
3
10
17.7800
20
17.7800
40
3.8100
0
POLYLINE
8
100
66
1
40
0.1270
41
0.1270
0
VERTEX
8
100
10
15.8750
20
17.7800
42
1.0
0
VERTEX
8
100
10
19.6850
20
17.7800
42
1.0
0
VERTEX
8
100
10
15.8750
20
17.7800
0
SEQEND
0
CIRCLE
8
100
62
3
10
17.7800
20
17.7800
40
1.5875
0
CIRCLE
8
100
62
3
10
134.6200
20
17.7800
40
3.8100
0
POLYLINE
8
100
66
1
40
0.1270
41
0.1270
0
VERTEX
8
100
10
132.7150
20
17.7800
42
1.0
0
VERTEX
8
100
10
136.5250
20
17.7800
42
1.0
0
VERTEX
8
100
10
132.7150
20
17.7800
0
SEQEND
0
CIRCLE
8
100
62
3
10
134.6200
20
17.7800
40
1.5875
0
CIRCLE
8
100
62
3
10
17.7800
20
105.4100
40
3.8100
0
POLYLINE
8
100
66
1
40
0.1270
41
0.1270
0
VERTEX
8
100
10
15.8750
20
105.4100
42
1.0
0
VERTEX
8
100
10
19.6850
20
105.4100
42
1.0
0
VERTEX
8
100
10
15.8750
20
105.4100
0
SEQEND
0
CIRCLE
8
100
62
3
10
17.7800
20
105.4100
40
1.5875
0
CIRCLE
8
100
62
3
10
17.7800
20
46.9900
40
3.8100
0
POLYLINE
8
100
66
1
40
0.1270
41
0.1270
0
VERTEX
8
100
10
15.8750
20
46.9900
42
1.0
0
VERTEX
8
100
10
19.6850
20
46.9900
42
1.0
0
VERTEX
8
100
10
15.8750
20
46.9900
0
SEQEND
0
CIRCLE
8
100
62
3
10
17.7800
20
46.9900
40
1.5875
0
CIRCLE
8
100
62
3
10
76.2000
20
134.6200
40
3.8100
0
POLYLINE
8
100
66
1
40
0.1270
41
0.1270
0
VERTEX
8
100
10
74.2950
20
134.6200
42
1.0
0
VERTEX
8
100
10
78.1050
20
134.6200
42
1.0
0
VERTEX
8
100
10
74.2950
20
134.6200
0
SEQEND
0
CIRCLE
8
100
62
3
10
76.2000
20
134.6200
40
1.5875
0
CIRCLE
8
100
62
3
10
46.9900
20
134.6200
40
3.8100
0
POLYLINE
8
100
66
1
40
0.1270
41
0.1270
0
VERTEX
8
100
10
45.0850
20
134.6200
42
1.0
0
VERTEX
8
100
10
48.8950
20
134.6200
42
1.0
0
VERTEX
8
100
10
45.0850
20
134.6200
0
SEQEND
0
CIRCLE
8
100
62
3
10
46.9900
20
134.6200
40
1.5875
0
SOLID
8
100
10
17.7800
20
130.8100
11
17.7800
21
138.4300
12
43.1800
22
130.8100
13
43.1800
23
138.4300
0
CIRCLE
8
100
62
7
10
30.4800
20
134.6200
40
0.0000
0
SOLID
8
100
10
38.1000
20
130.8100
11
38.1000
21
138.4300
12
63.5000
22
130.8100
13
63.5000
23
138.4300
0
CIRCLE
8
100
62
7
10
50.8000
20
134.6200
40
0.0000
0
SOLID
8
100
10
62.2300
20
130.8100
11
62.2300
21
138.4300
12
87.6300
22
130.8100
13
87.6300
23
138.4300
0
CIRCLE
8
100
62
7
10
74.9300
20
134.6200
40
0.0000
0
SOLID
8
100
10
130.8100
20
62.8650
11
130.8100
21
88.2650
12
138.4300
22
62.8650
13
138.4300
23
88.2650
0
CIRCLE
8
100
62
7
10
134.6200
20
75.5650
40
0.0000
0
SOLID
8
100
10
130.8100
20
38.1000
11
130.8100
21
63.5000
12
138.4300
22
38.1000
13
138.4300
23
63.5000
0
CIRCLE
8
100
62
7
10
134.6200
20
50.8000
40
0.0000
0
SOLID
8
100
10
130.8100
20
83.8200
11
130.8100
21
109.2200
12
138.4300
22
83.8200
13
138.4300
23
109.2200
0
CIRCLE
8
100
62
7
10
134.6200
20
96.5200
40
0.0000
0
SOLID
8
100
10
83.8200
20
130.8100
11
83.8200
21
138.4300
12
109.2200
22
130.8100
13
109.2200
23
138.4300
0
CIRCLE
8
100
62
7
10
96.5200
20
134.6200
40
0.0000
0
SOLID
8
100
10
38.1000
20
13.9700
11
38.1000
21
21.5900
12
63.5000
22
13.9700
13
63.5000
23
21.5900
0
CIRCLE
8
100
62
7
10
50.8000
20
17.7800
40
0.0000
0
SOLID
8
100
10
17.7800
20
13.9700
11
17.7800
21
21.5900
12
43.1800
22
13.9700
13
43.1800
23
21.5900
0
CIRCLE
8
100
62
7
10
30.4800
20
17.7800
40
0.0000
0
SOLID
8
100
10
130.8100
20
17.7800
11
130.8100
21
43.1800
12
138.4300
22
17.7800
13
138.4300
23
43.1800
0
CIRCLE
8
100
62
7
10
134.6200
20
30.4800
40
0.0000
0
SOLID
8
100
10
62.8650
20
13.9700
11
62.8650
21
21.5900
12
88.2650
22
13.9700
13
88.2650
23
21.5900
0
CIRCLE
8
100
62
7
10
75.5650
20
17.7800
40
0.0000
0
SOLID
8
100
10
83.8200
20
13.9700
11
83.8200
21
21.5900
12
109.2200
22
13.9700
13
109.2200
23
21.5900
0
CIRCLE
8
100
62
7
10
96.5200
20
17.7800
40
0.0000
0
CIRCLE
8
100
62
3
10
46.9900
20
17.7800
40
3.8100
0
POLYLINE
8
100
66
1
40
0.1270
41
0.1270
0
VERTEX
8
100
10
45.0850
20
17.7800
42
1.0
0
VERTEX
8
100
10
48.8950
20
17.7800
42
1.0
0
VERTEX
8
100
10
45.0850
20
17.7800
0
SEQEND
0
CIRCLE
8
100
62
3
10
46.9900
20
17.7800
40
1.5875
0
CIRCLE
8
100
62
3
10
76.2000
20
17.7800
40
3.8100
0
POLYLINE
8
100
66
1
40
0.1270
41
0.1270
0
VERTEX
8
100
10
74.2950
20
17.7800
42
1.0
0
VERTEX
8
100
10
78.1050
20
17.7800
42
1.0
0
VERTEX
8
100
10
74.2950
20
17.7800
0
SEQEND
0
CIRCLE
8
100
62
3
10
76.2000
20
17.7800
40
1.5875
0
CIRCLE
8
100
62
3
10
134.6200
20
76.2000
40
3.8100
0
POLYLINE
8
100
66
1
40
0.1270
41
0.1270
0
VERTEX
8
100
10
132.7150
20
76.2000
42
1.0
0
VERTEX
8
100
10
136.5250
20
76.2000
42
1.0
0
VERTEX
8
100
10
132.7150
20
76.2000
0
SEQEND
0
CIRCLE
8
100
62
3
10
134.6200
20
76.2000
40
1.5875
0
CIRCLE
8
100
62
3
10
134.6200
20
46.9900
40
3.8100
0
POLYLINE
8
100
66
1
40
0.1270
41
0.1270
0
VERTEX
8
100
10
132.7150
20
46.9900
42
1.0
0
VERTEX
8
100
10
136.5250
20
46.9900
42
1.0
0
VERTEX
8
100
10
132.7150
20
46.9900
0
SEQEND
0
CIRCLE
8
100
62
3
10
134.6200
20
46.9900
40
1.5875
0
CIRCLE
8
100
62
3
10
134.6200
20
105.4100
40
3.8100
0
POLYLINE
8
100
66
1
40
0.1270
41
0.1270
0
VERTEX
8
100
10
132.7150
20
105.4100
42
1.0
0
VERTEX
8
100
10
136.5250
20
105.4100
42
1.0
0
VERTEX
8
100
10
132.7150
20
105.4100
0
SEQEND
0
CIRCLE
8
100
62
3
10
134.6200
20
105.4100
40
1.5875
0
SOLID
8
100
10
17.7800
20
13.9700
11
17.7800
21
21.5900
12
43.1800
22
13.9700
13
43.1800
23
21.5900
0
CIRCLE
8
100
62
7
10
30.4800
20
17.7800
40
0.0000
0
SOLID
8
100
10
38.7350
20
13.9700
11
38.7350
21
21.5900
12
64.1350
22
13.9700
13
64.1350
23
21.5900
0
CIRCLE
8
100
62
7
10
51.4350
20
17.7800
40
0.0000
0
SOLID
8
100
10
62.8650
20
13.9700
11
62.8650
21
21.5900
12
88.2650
22
13.9700
13
88.2650
23
21.5900
0
CIRCLE
8
100
62
7
10
75.5650
20
17.7800
40
0.0000
0
SOLID
8
100
10
83.8200
20
13.9700
11
83.8200
21
21.5900
12
109.2200
22
13.9700
13
109.2200
23
21.5900
0
CIRCLE
8
100
62
7
10
96.5200
20
17.7800
40
0.0000
0
SOLID
8
100
10
130.8100
20
17.7800
11
130.8100
21
43.1800
12
138.4300
22
17.7800
13
138.4300
23
43.1800
0
CIRCLE
8
100
62
7
10
134.6200
20
30.4800
40
0.0000
0
SOLID
8
100
10
130.8100
20
42.5450
11
130.8100
21
67.9450
12
138.4300
22
42.5450
13
138.4300
23
67.9450
0
CIRCLE
8
100
62
7
10
134.6200
20
55.2450
40
0.0000
0
SOLID
8
100
10
130.8100
20
67.3100
11
130.8100
21
92.7100
12
138.4300
22
67.3100
13
138.4300
23
92.7100
0
CIRCLE
8
100
62
7
10
134.6200
20
80.0100
40
0.0000
0
SOLID
8
100
10
130.8100
20
83.8200
11
130.8100
21
109.2200
12
138.4300
22
83.8200
13
138.4300
23
109.2200
0
CIRCLE
8
100
62
7
10
134.6200
20
96.5200
40
0.0000
0
SOLID
8
100
10
83.8200
20
130.8100
11
83.8200
21
138.4300
12
109.2200
22
130.8100
13
109.2200
23
138.4300
0
CIRCLE
8
100
62
7
10
96.5200
20
134.6200
40
0.0000
0
SOLID
8
100
10
61.5950
20
130.8100
11
61.5950
21
138.4300
12
86.9950
22
130.8100
13
86.9950
23
138.4300
0
CIRCLE
8
100
62
7
10
74.2950
20
134.6200
40
0.0000
0
SOLID
8
100
10
38.1000
20
130.8100
11
38.1000
21
138.4300
12
63.5000
22
130.8100
13
63.5000
23
138.4300
0
CIRCLE
8
100
62
7
10
50.8000
20
134.6200
40
0.0000
0
SOLID
8
100
10
17.7800
20
130.8100
11
17.7800
21
138.4300
12
43.1800
22
130.8100
13
43.1800
23
138.4300
0
CIRCLE
8
100
62
7
10
30.4800
20
134.6200
40
0.0000
0
CIRCLE
8
100
62
3
10
32.6390
20
36.7030
40
0.3810
0
POLYLINE
8
100
66
1
40
0.0254
41
0.0254
0
VERTEX
8
100
10
32.4485
20
36.7030
42
1.0
0
VERTEX
8
100
10
32.8295
20
36.7030
42
1.0
0
VERTEX
8
100
10
32.4485
20
36.7030
0
SEQEND
0
CIRCLE
8
100
62
3
10
32.6390
20
36.7030
40
0.1905
0
CIRCLE
8
100
62
3
10
85.9790
20
30.9880
40
0.3810
0
POLYLINE
8
100
66
1
40
0.0254
41
0.0254
0
VERTEX
8
100
10
85.7885
20
30.9880
42
1.0
0
VERTEX
8
100
10
86.1695
20
30.9880
42
1.0
0
VERTEX
8
100
10
85.7885
20
30.9880
0
SEQEND
0
CIRCLE
8
100
62
3
10
85.9790
20
30.9880
40
0.1905
0
CIRCLE
8
100
62
3
10
89.5350
20
37.2110
40
0.3810
0
POLYLINE
8
100
66
1
40
0.0254
41
0.0254
0
VERTEX
8
100
10
89.3445
20
37.2110
42
1.0
0
VERTEX
8
100
10
89.7255
20
37.2110
42
1.0
0
VERTEX
8
100
10
89.3445
20
37.2110
0
SEQEND
0
CIRCLE
8
100
62
3
10
89.5350
20
37.2110
40
0.1905
0
CIRCLE
8
100
62
3
10
82.4230
20
37.2110
40
0.3810
0
POLYLINE
8
100
66
1
40
0.0254
41
0.0254
0
VERTEX
8
100
10
82.2325
20
37.2110
42
1.0
0
VERTEX
8
100
10
82.6135
20
37.2110
42
1.0
0
VERTEX
8
100
10
82.2325
20
37.2110
0
SEQEND
0
CIRCLE
8
100
62
3
10
82.4230
20
37.2110
40
0.1905
0
CIRCLE
8
100
62
3
10
118.3640
20
33.6550
40
0.3810
0
POLYLINE
8
100
66
1
40
0.0254
41
0.0254
0
VERTEX
8
100
10
118.1735
20
33.6550
42
1.0
0
VERTEX
8
100
10
118.5545
20
33.6550
42
1.0
0
VERTEX
8
100
10
118.1735
20
33.6550
0
SEQEND
0
CIRCLE
8
100
62
3
10
118.3640
20
33.6550
40
0.1905
0
CIRCLE
8
100
62
3
10
123.5710
20
30.0990
40
0.3810
0
POLYLINE
8
100
66
1
40
0.0254
41
0.0254
0
VERTEX
8
100
10
123.3805
20
30.0990
42
1.0
0
VERTEX
8
100
10
123.7615
20
30.0990
42
1.0
0
VERTEX
8
100
10
123.3805
20
30.0990
0
SEQEND
0
CIRCLE
8
100
62
3
10
123.5710
20
30.0990
40
0.1905
0
CIRCLE
8
100
62
3
10
97.9170
20
78.2320
40
0.3810
0
POLYLINE
8
100
66
1
40
0.0254
41
0.0254
0
VERTEX
8
100
10
97.7265
20
78.2320
42
1.0
0
VERTEX
8
100
10
98.1075
20
78.2320
42
1.0
0
VERTEX
8
100
10
97.7265
20
78.2320
0
SEQEND
0
CIRCLE
8
100
62
3
10
97.9170
20
78.2320
40
0.1905
0
CIRCLE
8
100
62
3
10
110.1090
20
125.8570
40
0.3810
0
POLYLINE
8
100
66
1
40
0.0254
41
0.0254
0
VERTEX
8
100
10
109.9185
20
125.8570
42
1.0
0
VERTEX
8
100
10
110.2995
20
125.8570
42
1.0
0
VERTEX
8
100
10
109.9185
20
125.8570
0
SEQEND
0
CIRCLE
8
100
62
3
10
110.1090
20
125.8570
40
0.1905
0
CIRCLE
8
100
62
3
10
115.5700
20
121.9200
40
0.3810
0
POLYLINE
8
100
66
1
40
0.0254
41
0.0254
0
VERTEX
8
100
10
115.3795
20
121.9200
42
1.0
0
VERTEX
8
100
10
115.7605
20
121.9200
42
1.0
0
VERTEX
8
100
10
115.3795
20
121.9200
0
SEQEND
0
CIRCLE
8
100
62
3
10
115.5700
20
121.9200
40
0.1905
0
CIRCLE
8
100
62
3
10
123.5710
20
98.6790
40
0.3810
0
POLYLINE
8
100
66
1
40
0.0254
41
0.0254
0
VERTEX
8
100
10
123.3805
20
98.6790
42
1.0
0
VERTEX
8
100
10
123.7615
20
98.6790
42
1.0
0
VERTEX
8
100
10
123.3805
20
98.6790
0
SEQEND
0
CIRCLE
8
100
62
3
10
123.5710
20
98.6790
40
0.1905
0
CIRCLE
8
100
62
3
10
123.5710
20
102.2350
40
0.3810
0
POLYLINE
8
100
66
1
40
0.0254
41
0.0254
0
VERTEX
8
100
10
123.3805
20
102.2350
42
1.0
0
VERTEX
8
100
10
123.7615
20
102.2350
42
1.0
0
VERTEX
8
100
10
123.3805
20
102.2350
0
SEQEND
0
CIRCLE
8
100
62
3
10
123.5710
20
102.2350
40
0.1905
0
CIRCLE
8
100
62
3
10
118.7450
20
43.3070
40
0.3810
0
POLYLINE
8
100
66
1
40
0.0254
41
0.0254
0
VERTEX
8
100
10
118.5545
20
43.3070
42
1.0
0
VERTEX
8
100
10
118.9355
20
43.3070
42
1.0
0
VERTEX
8
100
10
118.5545
20
43.3070
0
SEQEND
0
CIRCLE
8
100
62
3
10
118.7450
20
43.3070
40
0.1905
0
CIRCLE
8
100
62
3
10
118.8720
20
62.7380
40
0.3810
0
POLYLINE
8
100
66
1
40
0.0254
41
0.0254
0
VERTEX
8
100
10
118.6815
20
62.7380
42
1.0
0
VERTEX
8
100
10
119.0625
20
62.7380
42
1.0
0
VERTEX
8
100
10
118.6815
20
62.7380
0
SEQEND
0
CIRCLE
8
100
62
3
10
118.8720
20
62.7380
40
0.1905
0
CIRCLE
8
100
62
3
10
118.8720
20
66.4210
40
0.3810
0
POLYLINE
8
100
66
1
40
0.0254
41
0.0254
0
VERTEX
8
100
10
118.6815
20
66.4210
42
1.0
0
VERTEX
8
100
10
119.0625
20
66.4210
42
1.0
0
VERTEX
8
100
10
118.6815
20
66.4210
0
SEQEND
0
CIRCLE
8
100
62
3
10
118.8720
20
66.4210
40
0.1905
0
SOLID
8
100
10
111.2520
20
80.3910
11
111.2520
21
82.9310
12
126.4920
22
80.3910
13
126.4920
23
82.9310
0
CIRCLE
8
100
62
7
10
118.8720
20
81.6610
40
0.0000
0
SOLID
8
100
10
123.4440
20
75.3110
11
123.4440
21
88.0110
12
136.1440
22
75.3110
13
136.1440
23
88.0110
0
CIRCLE
8
100
62
7
10
129.7940
20
81.6610
40
0.0000
0
SOLID
8
100
10
123.4440
20
74.0410
11
123.4440
21
89.2810
12
136.1440
22
74.0410
13
136.1440
23
89.2810
0
CIRCLE
8
100
62
7
10
129.7940
20
81.6610
40
0.0000
0
CIRCLE
8
100
62
7
10
113.9190
20
97.7900
40
0.7874
0
POLYLINE
8
100
66
1
40
0.0508
41
0.0508
0
VERTEX
8
100
10
113.5253
20
97.7900
42
1.0
0
VERTEX
8
100
10
114.3127
20
97.7900
42
1.0
0
VERTEX
8
100
10
113.5253
20
97.7900
0
SEQEND
0
CIRCLE
8
100
62
7
10
113.9190
20
97.7900
40
0.5080
0
CIRCLE
8
100
62
3
10
116.2050
20
95.6310
40
0.3810
0
POLYLINE
8
100
66
1
40
0.0254
41
0.0254
0
VERTEX
8
100
10
116.0145
20
95.6310
42
1.0
0
VERTEX
8
100
10
116.3955
20
95.6310
42
1.0
0
VERTEX
8
100
10
116.0145
20
95.6310
0
SEQEND
0
CIRCLE
8
100
62
3
10
116.2050
20
95.6310
40
0.1905
0
CIRCLE
8
100
62
7
10
109.7280
20
97.7900
40
0.7874
0
POLYLINE
8
100
66
1
40
0.0508
41
0.0508
0
VERTEX
8
100
10
109.3343
20
97.7900
42
1.0
0
VERTEX
8
100
10
110.1217
20
97.7900
42
1.0
0
VERTEX
8
100
10
109.3343
20
97.7900
0
SEQEND
0
CIRCLE
8
100
62
7
10
109.7280
20
97.7900
40
0.5080
0
SOLID
8
100
10
111.2520
20
76.8350
11
111.2520
21
86.4870
12
117.6020
22
76.8350
13
117.6020
23
86.4870
0
CIRCLE
8
100
62
7
10
114.4270
20
81.6610
40
0.0000
0
SOLID
8
100
10
111.2520
20
76.8350
11
111.2520
21
86.4870
12
117.6020
22
76.8350
13
117.6020
23
86.4870
0
CIRCLE
8
100
62
7
10
114.4270
20
81.6610
40
0.0000
0
CIRCLE
8
100
62
3
10
116.8400
20
81.2800
40
0.3810
0
POLYLINE
8
100
66
1
40
0.0254
41
0.0254
0
VERTEX
8
100
10
116.6495
20
81.2800
42
1.0
0
VERTEX
8
100
10
117.0305
20
81.2800
42
1.0
0
VERTEX
8
100
10
116.6495
20
81.2800
0
SEQEND
0
CIRCLE
8
100
62
3
10
116.8400
20
81.2800
40
0.1905
0
CIRCLE
8
100
62
3
10
114.9350
20
81.9150
40
0.3810
0
POLYLINE
8
100
66
1
40
0.0254
41
0.0254
0
VERTEX
8
100
10
114.7445
20
81.9150
42
1.0
0
VERTEX
8
100
10
115.1255
20
81.9150
42
1.0
0
VERTEX
8
100
10
114.7445
20
81.9150
0
SEQEND
0
CIRCLE
8
100
62
3
10
114.9350
20
81.9150
40
0.1905
0
CIRCLE
8
100
62
3
10
113.0300
20
81.2800
40
0.3810
0
POLYLINE
8
100
66
1
40
0.0254
41
0.0254
0
VERTEX
8
100
10
112.8395
20
81.2800
42
1.0
0
VERTEX
8
100
10
113.2205
20
81.2800
42
1.0
0
VERTEX
8
100
10
112.8395
20
81.2800
0
SEQEND
0
CIRCLE
8
100
62
3
10
113.0300
20
81.2800
40
0.1905
0
CIRCLE
8
100
62
3
10
113.0300
20
83.1850
40
0.3810
0
POLYLINE
8
100
66
1
40
0.0254
41
0.0254
0
VERTEX
8
100
10
112.8395
20
83.1850
42
1.0
0
VERTEX
8
100
10
113.2205
20
83.1850
42
1.0
0
VERTEX
8
100
10
112.8395
20
83.1850
0
SEQEND
0
CIRCLE
8
100
62
3
10
113.0300
20
83.1850
40
0.1905
0
CIRCLE
8
100
62
3
10
114.9350
20
83.8200
40
0.3810
0
POLYLINE
8
100
66
1
40
0.0254
41
0.0254
0
VERTEX
8
100
10
114.7445
20
83.8200
42
1.0
0
VERTEX
8
100
10
115.1255
20
83.8200
42
1.0
0
VERTEX
8
100
10
114.7445
20
83.8200
0
SEQEND
0
CIRCLE
8
100
62
3
10
114.9350
20
83.8200
40
0.1905
0
CIRCLE
8
100
62
3
10
116.8400
20
83.1850
40
0.3810
0
POLYLINE
8
100
66
1
40
0.0254
41
0.0254
0
VERTEX
8
100
10
116.6495
20
83.1850
42
1.0
0
VERTEX
8
100
10
117.0305
20
83.1850
42
1.0
0
VERTEX
8
100
10
116.6495
20
83.1850
0
SEQEND
0
CIRCLE
8
100
62
3
10
116.8400
20
83.1850
40
0.1905
0
CIRCLE
8
100
62
3
10
116.8400
20
85.0900
40
0.3810
0
POLYLINE
8
100
66
1
40
0.0254
41
0.0254
0
VERTEX
8
100
10
116.6495
20
85.0900
42
1.0
0
VERTEX
8
100
10
117.0305
20
85.0900
42
1.0
0
VERTEX
8
100
10
116.6495
20
85.0900
0
SEQEND
0
CIRCLE
8
100
62
3
10
116.8400
20
85.0900
40
0.1905
0
CIRCLE
8
100
62
3
10
113.0300
20
85.0900
40
0.3810
0
POLYLINE
8
100
66
1
40
0.0254
41
0.0254
0
VERTEX
8
100
10
112.8395
20
85.0900
42
1.0
0
VERTEX
8
100
10
113.2205
20
85.0900
42
1.0
0
VERTEX
8
100
10
112.8395
20
85.0900
0
SEQEND
0
CIRCLE
8
100
62
3
10
113.0300
20
85.0900
40
0.1905
0
CIRCLE
8
100
62
3
10
113.0300
20
79.3750
40
0.3810
0
POLYLINE
8
100
66
1
40
0.0254
41
0.0254
0
VERTEX
8
100
10
112.8395
20
79.3750
42
1.0
0
VERTEX
8
100
10
113.2205
20
79.3750
42
1.0
0
VERTEX
8
100
10
112.8395
20
79.3750
0
SEQEND
0
CIRCLE
8
100
62
3
10
113.0300
20
79.3750
40
0.1905
0
CIRCLE
8
100
62
3
10
114.9350
20
80.0100
40
0.3810
0
POLYLINE
8
100
66
1
40
0.0254
41
0.0254
0
VERTEX
8
100
10
114.7445
20
80.0100
42
1.0
0
VERTEX
8
100
10
115.1255
20
80.0100
42
1.0
0
VERTEX
8
100
10
114.7445
20
80.0100
0
SEQEND
0
CIRCLE
8
100
62
3
10
114.9350
20
80.0100
40
0.1905
0
CIRCLE
8
100
62
3
10
116.8400
20
79.3750
40
0.3810
0
POLYLINE
8
100
66
1
40
0.0254
41
0.0254
0
VERTEX
8
100
10
116.6495
20
79.3750
42
1.0
0
VERTEX
8
100
10
117.0305
20
79.3750
42
1.0
0
VERTEX
8
100
10
116.6495
20
79.3750
0
SEQEND
0
CIRCLE
8
100
62
3
10
116.8400
20
79.3750
40
0.1905
0
CIRCLE
8
100
62
3
10
114.9350
20
78.1050
40
0.3810
0
POLYLINE
8
100
66
1
40
0.0254
41
0.0254
0
VERTEX
8
100
10
114.7445
20
78.1050
42
1.0
0
VERTEX
8
100
10
115.1255
20
78.1050
42
1.0
0
VERTEX
8
100
10
114.7445
20
78.1050
0
SEQEND
0
CIRCLE
8
100
62
3
10
114.9350
20
78.1050
40
0.1905
0
CIRCLE
8
100
62
3
10
124.4600
20
81.2800
40
0.3810
0
POLYLINE
8
100
66
1
40
0.0254
41
0.0254
0
VERTEX
8
100
10
124.2695
20
81.2800
42
1.0
0
VERTEX
8
100
10
124.6505
20
81.2800
42
1.0
0
VERTEX
8
100
10
124.2695
20
81.2800
0
SEQEND
0
CIRCLE
8
100
62
3
10
124.4600
20
81.2800
40
0.1905
0
CIRCLE
8
100
62
3
10
126.3650
20
81.9150
40
0.3810
0
POLYLINE
8
100
66
1
40
0.0254
41
0.0254
0
VERTEX
8
100
10
126.1745
20
81.9150
42
1.0
0
VERTEX
8
100
10
126.5555
20
81.9150
42
1.0
0
VERTEX
8
100
10
126.1745
20
81.9150
0
SEQEND
0
CIRCLE
8
100
62
3
10
126.3650
20
81.9150
40
0.1905
0
CIRCLE
8
100
62
3
10
124.4600
20
83.1850
40
0.3810
0
POLYLINE
8
100
66
1
40
0.0254
41
0.0254
0
VERTEX
8
100
10
124.2695
20
83.1850
42
1.0
0
VERTEX
8
100
10
124.6505
20
83.1850
42
1.0
0
VERTEX
8
100
10
124.2695
20
83.1850
0
SEQEND
0
CIRCLE
8
100
62
3
10
124.4600
20
83.1850
40
0.1905
0
CIRCLE
8
100
62
3
10
124.4600
20
79.3750
40
0.3810
0
POLYLINE
8
100
66
1
40
0.0254
41
0.0254
0
VERTEX
8
100
10
124.2695
20
79.3750
42
1.0
0
VERTEX
8
100
10
124.6505
20
79.3750
42
1.0
0
VERTEX
8
100
10
124.2695
20
79.3750
0
SEQEND
0
CIRCLE
8
100
62
3
10
124.4600
20
79.3750
40
0.1905
0
CIRCLE
8
100
62
3
10
128.2700
20
81.2800
40
0.3810
0
POLYLINE
8
100
66
1
40
0.0254
41
0.0254
0
VERTEX
8
100
10
128.0795
20
81.2800
42
1.0
0
VERTEX
8
100
10
128.4605
20
81.2800
42
1.0
0
VERTEX
8
100
10
128.0795
20
81.2800
0
SEQEND
0
CIRCLE
8
100
62
3
10
128.2700
20
81.2800
40
0.1905
0
CIRCLE
8
100
62
3
10
126.3650
20
80.0100
40
0.3810
0
POLYLINE
8
100
66
1
40
0.0254
41
0.0254
0
VERTEX
8
100
10
126.1745
20
80.0100
42
1.0
0
VERTEX
8
100
10
126.5555
20
80.0100
42
1.0
0
VERTEX
8
100
10
126.1745
20
80.0100
0
SEQEND
0
CIRCLE
8
100
62
3
10
126.3650
20
80.0100
40
0.1905
0
CIRCLE
8
100
62
3
10
128.2700
20
79.3750
40
0.3810
0
POLYLINE
8
100
66
1
40
0.0254
41
0.0254
0
VERTEX
8
100
10
128.0795
20
79.3750
42
1.0
0
VERTEX
8
100
10
128.4605
20
79.3750
42
1.0
0
VERTEX
8
100
10
128.0795
20
79.3750
0
SEQEND
0
CIRCLE
8
100
62
3
10
128.2700
20
79.3750
40
0.1905
0
CIRCLE
8
100
62
3
10
128.2700
20
83.1850
40
0.3810
0
POLYLINE
8
100
66
1
40
0.0254
41
0.0254
0
VERTEX
8
100
10
128.0795
20
83.1850
42
1.0
0
VERTEX
8
100
10
128.4605
20
83.1850
42
1.0
0
VERTEX
8
100
10
128.0795
20
83.1850
0
SEQEND
0
CIRCLE
8
100
62
3
10
128.2700
20
83.1850
40
0.1905
0
CIRCLE
8
100
62
3
10
126.3650
20
83.8200
40
0.3810
0
POLYLINE
8
100
66
1
40
0.0254
41
0.0254
0
VERTEX
8
100
10
126.1745
20
83.8200
42
1.0
0
VERTEX
8
100
10
126.5555
20
83.8200
42
1.0
0
VERTEX
8
100
10
126.1745
20
83.8200
0
SEQEND
0
CIRCLE
8
100
62
3
10
126.3650
20
83.8200
40
0.1905
0
CIRCLE
8
100
62
3
10
126.3650
20
78.1050
40
0.3810
0
POLYLINE
8
100
66
1
40
0.0254
41
0.0254
0
VERTEX
8
100
10
126.1745
20
78.1050
42
1.0
0
VERTEX
8
100
10
126.5555
20
78.1050
42
1.0
0
VERTEX
8
100
10
126.1745
20
78.1050
0
SEQEND
0
CIRCLE
8
100
62
3
10
126.3650
20
78.1050
40
0.1905
0
CIRCLE
8
100
62
3
10
124.4600
20
85.0900
40
0.3810
0
POLYLINE
8
100
66
1
40
0.0254
41
0.0254
0
VERTEX
8
100
10
124.2695
20
85.0900
42
1.0
0
VERTEX
8
100
10
124.6505
20
85.0900
42
1.0
0
VERTEX
8
100
10
124.2695
20
85.0900
0
SEQEND
0
CIRCLE
8
100
62
3
10
124.4600
20
85.0900
40
0.1905
0
CIRCLE
8
100
62
3
10
128.2700
20
85.0900
40
0.3810
0
POLYLINE
8
100
66
1
40
0.0254
41
0.0254
0
VERTEX
8
100
10
128.0795
20
85.0900
42
1.0
0
VERTEX
8
100
10
128.4605
20
85.0900
42
1.0
0
VERTEX
8
100
10
128.0795
20
85.0900
0
SEQEND
0
CIRCLE
8
100
62
3
10
128.2700
20
85.0900
40
0.1905
0
CIRCLE
8
100
62
3
10
34.1630
20
46.8630
40
0.3810
0
POLYLINE
8
100
66
1
40
0.0254
41
0.0254
0
VERTEX
8
100
10
33.9725
20
46.8630
42
1.0
0
VERTEX
8
100
10
34.3535
20
46.8630
42
1.0
0
VERTEX
8
100
10
33.9725
20
46.8630
0
SEQEND
0
CIRCLE
8
100
62
3
10
34.1630
20
46.8630
40
0.1905
0
CIRCLE
8
100
62
7
10
27.5590
20
46.8630
40
0.7874
0
POLYLINE
8
100
66
1
40
0.0508
41
0.0508
0
VERTEX
8
100
10
27.1653
20
46.8630
42
1.0
0
VERTEX
8
100
10
27.9527
20
46.8630
42
1.0
0
VERTEX
8
100
10
27.1653
20
46.8630
0
SEQEND
0
CIRCLE
8
100
62
7
10
27.5590
20
46.8630
40
0.5080
0
CIRCLE
8
100
62
7
10
41.0210
20
46.8630
40
0.7874
0
POLYLINE
8
100
66
1
40
0.0508
41
0.0508
0
VERTEX
8
100
10
40.6273
20
46.8630
42
1.0
0
VERTEX
8
100
10
41.4147
20
46.8630
42
1.0
0
VERTEX
8
100
10
40.6273
20
46.8630
0
SEQEND
0
CIRCLE
8
100
62
7
10
41.0210
20
46.8630
40
0.5080
0
CIRCLE
8
100
62
7
10
94.6150
20
40.6400
40
0.7874
0
POLYLINE
8
100
66
1
40
0.0508
41
0.0508
0
VERTEX
8
100
10
94.2213
20
40.6400
42
1.0
0
VERTEX
8
100
10
95.0087
20
40.6400
42
1.0
0
VERTEX
8
100
10
94.2213
20
40.6400
0
SEQEND
0
CIRCLE
8
100
62
7
10
94.6150
20
40.6400
40
0.5080
0
CIRCLE
8
100
62
7
10
56.1340
20
66.8020
40
0.7874
0
POLYLINE
8
100
66
1
40
0.0508
41
0.0508
0
VERTEX
8
100
10
55.7403
20
66.8020
42
1.0
0
VERTEX
8
100
10
56.5277
20
66.8020
42
1.0
0
VERTEX
8
100
10
55.7403
20
66.8020
0
SEQEND
0
CIRCLE
8
100
62
7
10
56.1340
20
66.8020
40
0.5080
0
CIRCLE
8
100
62
7
10
117.2210
20
36.0680
40
0.7874
0
POLYLINE
8
100
66
1
40
0.0508
41
0.0508
0
VERTEX
8
100
10
116.8273
20
36.0680
42
1.0
0
VERTEX
8
100
10
117.6147
20
36.0680
42
1.0
0
VERTEX
8
100
10
116.8273
20
36.0680
0
SEQEND
0
CIRCLE
8
100
62
7
10
117.2210
20
36.0680
40
0.5080
0
CIRCLE
8
100
62
7
10
117.2210
20
41.0210
40
0.7874
0
POLYLINE
8
100
66
1
40
0.0508
41
0.0508
0
VERTEX
8
100
10
116.8273
20
41.0210
42
1.0
0
VERTEX
8
100
10
117.6147
20
41.0210
42
1.0
0
VERTEX
8
100
10
116.8273
20
41.0210
0
SEQEND
0
CIRCLE
8
100
62
7
10
117.2210
20
41.0210
40
0.5080
0
CIRCLE
8
100
62
3
10
110.1090
20
41.9100
40
0.3810
0
POLYLINE
8
100
66
1
40
0.0254
41
0.0254
0
VERTEX
8
100
10
109.9185
20
41.9100
42
1.0
0
VERTEX
8
100
10
110.2995
20
41.9100
42
1.0
0
VERTEX
8
100
10
109.9185
20
41.9100
0
SEQEND
0
CIRCLE
8
100
62
3
10
110.1090
20
41.9100
40
0.1905
0
CIRCLE
8
100
62
3
10
110.1090
20
37.4650
40
0.3810
0
POLYLINE
8
100
66
1
40
0.0254
41
0.0254
0
VERTEX
8
100
10
109.9185
20
37.4650
42
1.0
0
VERTEX
8
100
10
110.2995
20
37.4650
42
1.0
0
VERTEX
8
100
10
109.9185
20
37.4650
0
SEQEND
0
CIRCLE
8
100
62
3
10
110.1090
20
37.4650
40
0.1905
0
CIRCLE
8
100
62
3
10
90.1700
20
71.7550
40
0.3810
0
POLYLINE
8
100
66
1
40
0.0254
41
0.0254
0
VERTEX
8
100
10
89.9795
20
71.7550
42
1.0
0
VERTEX
8
100
10
90.3605
20
71.7550
42
1.0
0
VERTEX
8
100
10
89.9795
20
71.7550
0
SEQEND
0
CIRCLE
8
100
62
3
10
90.1700
20
71.7550
40
0.1905
0
CIRCLE
8
100
62
3
10
90.1700
20
80.6450
40
0.3810
0
POLYLINE
8
100
66
1
40
0.0254
41
0.0254
0
VERTEX
8
100
10
89.9795
20
80.6450
42
1.0
0
VERTEX
8
100
10
90.3605
20
80.6450
42
1.0
0
VERTEX
8
100
10
89.9795
20
80.6450
0
SEQEND
0
CIRCLE
8
100
62
3
10
90.1700
20
80.6450
40
0.1905
0
CIRCLE
8
100
62
7
10
96.9010
20
71.7550
40
0.7874
0
POLYLINE
8
100
66
1
40
0.0508
41
0.0508
0
VERTEX
8
100
10
96.5073
20
71.7550
42
1.0
0
VERTEX
8
100
10
97.2947
20
71.7550
42
1.0
0
VERTEX
8
100
10
96.5073
20
71.7550
0
SEQEND
0
CIRCLE
8
100
62
7
10
96.9010
20
71.7550
40
0.5080
0
CIRCLE
8
100
62
7
10
96.9010
20
80.6450
40
0.7874
0
POLYLINE
8
100
66
1
40
0.0508
41
0.0508
0
VERTEX
8
100
10
96.5073
20
80.6450
42
1.0
0
VERTEX
8
100
10
97.2947
20
80.6450
42
1.0
0
VERTEX
8
100
10
96.5073
20
80.6450
0
SEQEND
0
CIRCLE
8
100
62
7
10
96.9010
20
80.6450
40
0.5080
0
CIRCLE
8
100
62
3
10
25.9080
20
67.9450
40
0.3810
0
POLYLINE
8
100
66
1
40
0.0254
41
0.0254
0
VERTEX
8
100
10
25.7175
20
67.9450
42
1.0
0
VERTEX
8
100
10
26.0985
20
67.9450
42
1.0
0
VERTEX
8
100
10
25.7175
20
67.9450
0
SEQEND
0
CIRCLE
8
100
62
3
10
25.9080
20
67.9450
40
0.1905
0
CIRCLE
8
100
62
7
10
19.5580
20
77.7240
40
0.7874
0
POLYLINE
8
100
66
1
40
0.0508
41
0.0508
0
VERTEX
8
100
10
19.1643
20
77.7240
42
1.0
0
VERTEX
8
100
10
19.9517
20
77.7240
42
1.0
0
VERTEX
8
100
10
19.1643
20
77.7240
0
SEQEND
0
CIRCLE
8
100
62
7
10
19.5580
20
77.7240
40
0.5080
0
CIRCLE
8
100
62
3
10
27.8130
20
58.4200
40
0.3810
0
POLYLINE
8
100
66
1
40
0.0254
41
0.0254
0
VERTEX
8
100
10
27.6225
20
58.4200
42
1.0
0
VERTEX
8
100
10
28.0035
20
58.4200
42
1.0
0
VERTEX
8
100
10
27.6225
20
58.4200
0
SEQEND
0
CIRCLE
8
100
62
3
10
27.8130
20
58.4200
40
0.1905
0
CIRCLE
8
100
62
3
10
31.2420
20
54.8640
40
0.3810
0
POLYLINE
8
100
66
1
40
0.0254
41
0.0254
0
VERTEX
8
100
10
31.0515
20
54.8640
42
1.0
0
VERTEX
8
100
10
31.4325
20
54.8640
42
1.0
0
VERTEX
8
100
10
31.0515
20
54.8640
0
SEQEND
0
CIRCLE
8
100
62
3
10
31.2420
20
54.8640
40
0.1905
0
CIRCLE
8
100
62
7
10
32.8930
20
55.8800
40
0.3810
0
POLYLINE
8
100
66
1
40
0.0254
41
0.0254
0
VERTEX
8
100
10
32.7025
20
55.8800
42
1.0
0
VERTEX
8
100
10
33.0835
20
55.8800
42
1.0
0
VERTEX
8
100
10
32.7025
20
55.8800
0
SEQEND
0
CIRCLE
8
100
62
7
10
32.8930
20
55.8800
40
0.1905
0
CIRCLE
8
100
62
3
10
26.1620
20
62.2300
40
0.3810
0
POLYLINE
8
100
66
1
40
0.0254
41
0.0254
0
VERTEX
8
100
10
25.9715
20
62.2300
42
1.0
0
VERTEX
8
100
10
26.3525
20
62.2300
42
1.0
0
VERTEX
8
100
10
25.9715
20
62.2300
0
SEQEND
0
CIRCLE
8
100
62
3
10
26.1620
20
62.2300
40
0.1905
0
CIRCLE
8
100
62
7
10
42.7990
20
62.7380
40
0.3810
0
POLYLINE
8
100
66
1
40
0.0254
41
0.0254
0
VERTEX
8
100
10
42.6085
20
62.7380
42
1.0
0
VERTEX
8
100
10
42.9895
20
62.7380
42
1.0
0
VERTEX
8
100
10
42.6085
20
62.7380
0
SEQEND
0
CIRCLE
8
100
62
7
10
42.7990
20
62.7380
40
0.1905
0
CIRCLE
8
100
62
3
10
37.5920
20
63.3730
40
0.3810
0
POLYLINE
8
100
66
1
40
0.0254
41
0.0254
0
VERTEX
8
100
10
37.4015
20
63.3730
42
1.0
0
VERTEX
8
100
10
37.7825
20
63.3730
42
1.0
0
VERTEX
8
100
10
37.4015
20
63.3730
0
SEQEND
0
CIRCLE
8
100
62
3
10
37.5920
20
63.3730
40
0.1905
0
CIRCLE
8
100
62
3
10
41.1480
20
61.0870
40
0.3810
0
POLYLINE
8
100
66
1
40
0.0254
41
0.0254
0
VERTEX
8
100
10
40.9575
20
61.0870
42
1.0
0
VERTEX
8
100
10
41.3385
20
61.0870
42
1.0
0
VERTEX
8
100
10
40.9575
20
61.0870
0
SEQEND
0
CIRCLE
8
100
62
3
10
41.1480
20
61.0870
40
0.1905
0
CIRCLE
8
100
62
7
10
36.3220
20
68.5800
40
0.3810
0
POLYLINE
8
100
66
1
40
0.0254
41
0.0254
0
VERTEX
8
100
10
36.1315
20
68.5800
42
1.0
0
VERTEX
8
100
10
36.5125
20
68.5800
42
1.0
0
VERTEX
8
100
10
36.1315
20
68.5800
0
SEQEND
0
CIRCLE
8
100
62
7
10
36.3220
20
68.5800
40
0.1905
0
CIRCLE
8
100
62
3
10
108.0770
20
123.6980
40
0.3810
0
POLYLINE
8
100
66
1
40
0.0254
41
0.0254
0
VERTEX
8
100
10
107.8865
20
123.6980
42
1.0
0
VERTEX
8
100
10
108.2675
20
123.6980
42
1.0
0
VERTEX
8
100
10
107.8865
20
123.6980
0
SEQEND
0
CIRCLE
8
100
62
3
10
108.0770
20
123.6980
40
0.1905
0
CIRCLE
8
100
62
3
10
113.0300
20
120.1420
40
0.3810
0
POLYLINE
8
100
66
1
40
0.0254
41
0.0254
0
VERTEX
8
100
10
112.8395
20
120.1420
42
1.0
0
VERTEX
8
100
10
113.2205
20
120.1420
42
1.0
0
VERTEX
8
100
10
112.8395
20
120.1420
0
SEQEND
0
CIRCLE
8
100
62
3
10
113.0300
20
120.1420
40
0.1905
0
CIRCLE
8
100
62
7
10
44.9580
20
47.6250
40
0.7874
0
POLYLINE
8
100
66
1
40
0.0508
41
0.0508
0
VERTEX
8
100
10
44.5643
20
47.6250
42
1.0
0
VERTEX
8
100
10
45.3517
20
47.6250
42
1.0
0
VERTEX
8
100
10
44.5643
20
47.6250
0
SEQEND
0
CIRCLE
8
100
62
7
10
44.9580
20
47.6250
40
0.5080
0
CIRCLE
8
100
62
3
10
50.0380
20
49.0220
40
0.3810
0
POLYLINE
8
100
66
1
40
0.0254
41
0.0254
0
VERTEX
8
100
10
49.8475
20
49.0220
42
1.0
0
VERTEX
8
100
10
50.2285
20
49.0220
42
1.0
0
VERTEX
8
100
10
49.8475
20
49.0220
0
SEQEND
0
CIRCLE
8
100
62
3
10
50.0380
20
49.0220
40
0.1905
0
CIRCLE
8
100
62
3
10
50.0380
20
46.2280
40
0.3810
0
POLYLINE
8
100
66
1
40
0.0254
41
0.0254
0
VERTEX
8
100
10
49.8475
20
46.2280
42
1.0
0
VERTEX
8
100
10
50.2285
20
46.2280
42
1.0
0
VERTEX
8
100
10
49.8475
20
46.2280
0
SEQEND
0
CIRCLE
8
100
62
3
10
50.0380
20
46.2280
40
0.1905
0
CIRCLE
8
100
62
3
10
44.8310
20
40.8940
40
0.3810
0
POLYLINE
8
100
66
1
40
0.0254
41
0.0254
0
VERTEX
8
100
10
44.6405
20
40.8940
42
1.0
0
VERTEX
8
100
10
45.0215
20
40.8940
42
1.0
0
VERTEX
8
100
10
44.6405
20
40.8940
0
SEQEND
0
CIRCLE
8
100
62
3
10
44.8310
20
40.8940
40
0.1905
0
CIRCLE
8
100
62
3
10
41.9100
20
40.8940
40
0.3810
0
POLYLINE
8
100
66
1
40
0.0254
41
0.0254
0
VERTEX
8
100
10
41.7195
20
40.8940
42
1.0
0
VERTEX
8
100
10
42.1005
20
40.8940
42
1.0
0
VERTEX
8
100
10
41.7195
20
40.8940
0
SEQEND
0
CIRCLE
8
100
62
3
10
41.9100
20
40.8940
40
0.1905
0
CIRCLE
8
100
62
3
10
41.9100
20
36.8300
40
0.3810
0
POLYLINE
8
100
66
1
40
0.0254
41
0.0254
0
VERTEX
8
100
10
41.7195
20
36.8300
42
1.0
0
VERTEX
8
100
10
42.1005
20
36.8300
42
1.0
0
VERTEX
8
100
10
41.7195
20
36.8300
0
SEQEND
0
CIRCLE
8
100
62
3
10
41.9100
20
36.8300
40
0.1905
0
CIRCLE
8
100
62
3
10
44.8310
20
36.8300
40
0.3810
0
POLYLINE
8
100
66
1
40
0.0254
41
0.0254
0
VERTEX
8
100
10
44.6405
20
36.8300
42
1.0
0
VERTEX
8
100
10
45.0215
20
36.8300
42
1.0
0
VERTEX
8
100
10
44.6405
20
36.8300
0
SEQEND
0
CIRCLE
8
100
62
3
10
44.8310
20
36.8300
40
0.1905
0
ENDSEC
0
EOF
